Oops, an error
Loading. Please wait.

Cody You Birthday Song Tab

1,126 views 1 this week
3 commentsread comments
1 2 3 4 5
please rate
add to favorites
launch autoscroll
font size
0
reset
how to read this tab
guitar tuner
Autoscroll
slow
fast
+/-
esc
set tempo
stop
Help us to improve Ultimate-Guitar.com Take our survey!
×
Author
-------------------------------------------------------------------------------
                Cody, you C*** (Birthday Song)-Opeth
-------------------------------------------------------------------------------
Tabbed by:C.J. DuQuaine
Email:slycoop95@yahoo.com

Tuning:Standard

Taken from this Youtube video: http://www.youtube.com/watch?v=twpt5GqtAYo

e|---------------------------------------------------| Repeat x1
B|---------------------------------------------------|
G|-x11-x6--x4---x11-x6-------------------------------|
D|-2---5---7-----2--5---7----------------------------| Replace Line with
A|-2---5---7-----2--5---7----------------------------| "Cody."
E|-0---3---5-----0--3---5----------------------------|
                          It's your birthday.
e|---------------------------------------------------------------------------|
B|---------------------------------------------------------------------------|
G|-x11--x6--x4--x11--x6------------------------------------------------------|
D|--2---5---7----2---5---7~--5~--2~------------------------------------------|
A|--2---5---7----2---5---7~--5~--2~------------------------------------------|
E|--0---3---5----0---3---5~--3~--0~------------------------------------------|

It's really hard to make out the ending solo but I can tell it's pentatonic

| /  slide up
| \  slide down
| h  hammer-on
| p  pull-off
| ~  vibrato
| +  harmonic
| x  Mute note
===============================================================================
Suggest correction
What's this?
You can suggest a correction to this tab. Community and Mods will review your correction and vote to approve or reject it.
comments
We did not receive enough feedback on this tab! Please rate:
print report bad tab
1 2 3 4 5
3 comments total.
0 reply
Ashratempel 271 wrote on March 28 2016, 09:25 pm

this is completely wrong, this tab is made without any seriousness or then its a bad try. try again and i will rate it up if the work is better (Y)

0 reply
NSpen1 2,663 wrote on July 19 2016, 01:00 am

Ha, this is funny.
If you want a more accurate tab then it's something like this :

|----------------|----------------|----------------|----------------|
|----------------|----------------|----------------|----------------|
|----------------|----------------|----------------|----------------|
|2---2-2---2-2-2-|2---2-2---2-2-2-|5---5-5---5-5-5-|7---7-7---7-7-7-|
|2---2-2---2-2-2-|2---2-2---2-2-2-|5---5-5---5-5-5-|7---7-7---7-7-7-|
|0---0-0---0-0-0-|0---0-0---0-0-0-|3---3-3---3-3-3-|5---5-5---5-5-5-|

|----------------|----------------|----------------|----------------|
|----------------|----------------|----------------|----------------|
|----------------|----------------|----------------|----------------|
|2---2-2---2-2-2-|2---2-2---2-2-2-|5---5-5---5-5-5-|7-(rest)--------|
|2---2-2---2-2-2-|2---2-2---2-2-2-|5---5-5---5-5-5-|7---------------|
|0---0-0---0-0-0-|0---0-0---0-0-0-|3---3-3---3-3-3-|5---------------|

0 reply
NSpen1 2,663 wrote on July 19 2016, 01:01 am

goddamn u-g editing system!

guest
You may want to rate the tab now too:
select rating
Please do not post tabs as comments. Select "correction" instead!