Oops, an error
Loading. Please wait.

Coil Tab

version 1
version 1

Whole song

Interactive

151,775 views 153 this week
22 commentsread comments
1 2 3 4 5
x 32
add to favorites
launch autoscroll
font size
0
reset
how to read this tab
guitar tuner
Autoscroll
slow
fast
+/-
esc
set tempo
stop
Help us to improve Ultimate-Guitar.com Take our survey!
×
Author
Difficulty
intermediate
Note:
I highly recommend that you play this using finger-picking.
I have not indicated the rhythm anywhere and the spacing between notes on this
tab is just arbitaty, please figure out the rhythm for yourself, it's not
hard.

Feel free to critise, but be constructive and say why you think it's wrong.


Play Order: AABBCC  [Female vocals start]BBCCB

(For outro only play the first riff in Part B)


[Part A]

Let ring--->

e|---------0-------|--------0-------||
B|-------0---0-----|------0---0-----||
G|2---5--------5---|----8-------8---||
D|--4------------4-|7-------------7-||
A|0----------------|0-0-------------||
E|-----------------|----------------||


[Chords]

(Strum these):

e|0-0-0-0-|0-0-0-0-|0-0-0-0--|0-0-||
B|5-5-3-3-|3-3-1-1-|1-1-0-0h1|1-1-||
G|6-6-4-4-|4-4-2-2-|2-2-0-0h2|2-2-||
D|7-7-5-5-|5-5-3-3-|3-3-0-0h2|2-2-||
A|0-0-0-0-|0-0-0-0-|0-0-0-0--|0-0-||
E|x-x-x-x-|x-x-x-x-|x-x-x-x--|x-x-||


[Part B]

"For nothing..."

Repeat this riff as necessary

e|--------------------------------|
B|--------------------------------|
G|9-----9-----9-----9-----9---7---|
D|--7-----7-----7-----7-----7-----|
A|----0-----0-----0-----0-------0-|
E|--------------------------------|

"I found that the years past us by..."

e|----------------|------------------|
B|----------------|------------------|
G|5---7-----7-----|-----0-----0---0--|
D|------5-----5---|---5-----5--------|
A|-0------5-----5-|/3-----2-----0----|
E|----------------|------------------|

Let the open A ring slightly before restarting the above riff


[Part C]

"And I can see you, running through the fields of sorrow..." -
I think the 1st part of this is wrong!

e|----------------|--------0---------|----------------|----------------|
B|----------------|------0---0-------|--------3-------|----3-----------|
G|----7---9---7---|----5-------5-----|----0-----0---0-|------0-----0---|
D|--7---7---7---7-|--7-----------7---|--0---0-----0---|--0-------0---0-|
A|0---------------|0---------------0-|5---------------|5-------3-------|
E|----------------|------------------|----------------|----------------|


1st time round you play this:

The Hammer on/pull of bit is a triplet

e|-------------------------------------------|------------------------------|
B|-------------------------------------------|------------------------------|
G|----7---6-7/9---12--/14---12-11h12p11-9----|6-7/9----7-6---4---7---6-----6|
D|--7---7---------------------------------12-|7-9/11---9-7---5---9---7---7--|
A|0-------------0----0----0------------------|0------0-----0---0---0---0----|
E|-------------------------------------------|------------------------------|

Go back to the beginning of Part C

2nd time round go back to Part B.



************************************

| x  Dead note
| h  Hammer-on
| p  Pull-off
| /  Slide up

************************************
Suggest correction
comments
print report bad tab
22 comments total. Showing first comments.
0 reply
delcypher 71 May 01, 2008 03:55 PM

It has been pointed out to me that I've made a few mistakes (I'm sure more will be found as time goes by), but here are two corrections (Thanks to Onur Akmeric for these corrections - that was quick work).

In the intro riff the 4's should be on the D string NOT the A string, so like this.


e|-------------0----------|----------0-------||
B|------1-0-----0-1----|----4-0---0-4---||
G|2----------------------|2---------------2-||
D|---4----------------4-|--------------------||
A|0----------------------|0-0---------------||
E|------------------------|--------------------||


And the second chord after this should be

x05700 not x05400.

0 reply
Ibaneavey 10 May 06, 2008 10:27 PM

I found a few better ways to play this

e|--------0---------|--------0--------||
B|------0---0-------|------0---0------||
G|2---5-------5-----|----6-------6----||
D|--4----------4----|7-7-----------7--||
A|0-----------------|0----------------||
E|------------------|-----------------||

the 2 and the 7 aren't really played since it is a twelve string guitar being played but it does get the right sound on a 6 string.

0 reply
Ibaneavey 10 May 06, 2008 10:46 PM

Crap i made a mistake in my correction, its actually:

e|--------0---------|--------0--------||
B|------0---0-------|------0---0------||
G|2---5-------5-----|----8-------8----||
D|--4----------4----|7-7-----------7--||
A|0-----------------|0----------------||
E|------------------|-----------------||

guest
You may want to rate the tab now too:
select rating
Wanna post a correction for this tab? Suggest correction