Oops, an error
Loading. Please wait.

Coil Tab

version 3
version 3

Whole song

Interactive

8,734 views 45 this week
4 commentsread comments
1 2 3 4 5
excellent!
x 6
add to favorites
launch autoscroll
font size
0
reset
how to read this tab
guitar tuner
Autoscroll
slow
fast
+/-
esc
set tempo
stop
Help us to improve Ultimate-Guitar.com Take our survey!
×
Author
Difficulty
intermediate
#----------------------------------PLEASE NOTE---------------------------------#
#This file is the author's own work and represents their interpretation of the #
#song. You may only use this file for private study, scholarship, or research. #
#------------------------------------------------------------------------------##

                                      COIL
                              As recorded by Opeth
                         (From the 2008 Album WATERSHED)

Words and Music by Mikael Åkerfeldt
Transcribed by GuitarHero_JP

Gtr I (E A D G B E) - 'Guitar I'
Gtr II (E A D G B E) - 'Guitar II'

Thanks to Xerosis whos tab I used to help with mine.

   Intro
    Q=133
   4/4
    Gtr I
    E E E E E E E E   +W           E E E E E E E E   +W
||----------0-------|------------|---------0-------|--------|
||o-------0---0-----|------------|-------0---0-----|--------|
||------5-------5---|------------|-----8-------8---|--------|
||----4-----------4-|-(4)--------|---7-----------7-|-(7)----|
||o-0---------------|------------|-0---------------|--------|
||------------------|------------|-----------------|--------|
|
|   Gtr II
|   E E E E E E E E   +W           E E E E E E E E   +W
||----------0-------|------------|---------0-------|--------|
||o-------0---0-----|------------|-------0---0-----|--------|
||--2---5-------5---|------------|-----8-------8---|--------|
||----4-----------4-|-(4)--------|-7-------------7-|-(7)----|
||o-----------------|------------|---0-------------|--------|
||------------------|------------|-----------------|--------|


  Gtrs I, II
   E  E E  E  H      +H      E  E E  E
|-^0-!0---^0-!0----|-(0)----^0-!0---^0-|
|-^5-!5---^3-!3----|-(3)----^3-!3---^1-|
|-^6-!6---^4-!4----|-(4)----^4-!4---^2-|
|-^7-!7---^5-!5----|-(5)----^5-!5---^3-|
|-^0-!0---^0-!0----|-(0)----^0-!0---^0-|
|------------------|-------------------|


                                   1.
                                  6/4
   W           E  E E  E  E E Q     W.
|-^0--------|-^0-!0--------------|-^0------||
|-^1--------|-^1-!1---^0-!0------|-^1-----o||
|-^2--------|-^2-!2---^0-!0h2----|-^2------||
|-^3--------|-^3-!3---^2-!2------|-^2------||
|-^0--------|-^0-!0---^0-!0---0--|--------o||
|-----------|--------------------|---------||


  2.
 3/4                           4/4
  Gtr I
   E  E E E E E   E E E E E E   E E E E E E E E   E E E E E E E E
|---------------|-------------|-----------------|-----------------|
|---------------|-------------|-----------------|-----------------|
|-----9-----9---|---9-----9---|-7---9-----9-----|-9-----9-----9---|
|-------7-----7-|-----7-----7-|---5---7-----7---|---7-----7-----7-|
|--0------0-----|-0-----0-----|-0-------0-----0-|-----0-----0-----|
|---------------|-------------|-----------------|-----------------|
|
| Gtr II
|  H.
|-^0------------|-------------|-----------------|-----------------|
|-^1------------|-------------|-----------------|-----------------|
|-^2------------|-------------|-----------------|-----------------|
|-^2------------|-------------|-----------------|-----------------|
|---------------|-------------|-----------------|-----------------|
|---------------|-------------|-----------------|-----------------|


   Verse
    Gtr I
    E E E E E E E E   E E E E E E E E   E E E E E E E E   E E E E E E E E   4x
||------------------|-----------------|-----------------|-------------------||
||o-----------------|-----------------|-----------------|------------------o||
||--7---9-----9-----|-9-----9-----9---|-7---9-----9-----|-9-----9-----9-----||
||----5---7-----7---|---7-----7-----7-|---5---7-----7---|---7-----7-----7---||
||o-0-------0-----0-|-----0-----0-----|-0-------0-----0-|-----0-----0------o||
||------------------|-----------------|-----------------|-------------------||


  E E E E E E E E   S S E E E E E E E
|-----------------|-------------------|
|-1---3-----3-----|-------------------|
|-----------------|-------0-----0-----|
|---4---4-----4---|-----0-----0-------|
|-0-------0-----0-|-2h3-----2---------|
|-----------------|---------------3-0-|


  E E E E E E E E   E E E E E E E E   E E E E E E E E   E E E E E E E E
|-----------------|-----------------|-----------------|-----------------|
|-----------------|-----------------|-----------------|-----------------|
|-7---9-----9-----|-9-----9-----9---|-7---9-----9-----|-9-----9-----9---|
|---5---7-----7---|---7-----7-----7-|---5---7-----7---|---7-----7-----7-|
|-0-------0-----0-|-----0-----0-----|-0-------0-----0-|-----0-----0-----|
|-----------------|-----------------|-----------------|-----------------|


  E E E E E E E E   E E E E E E E E   E E E E E E E E   S S E E E E E E E
|-----------------|-----------------|-----------------|--------------------|
|-----------------|-----------------|-1---3-----3-----|--------------------|
|-7---9-----9-----|-9-----9-----9---|-----------------|-------0-----0------|
|---5---7-----7---|---7-----7-----7-|---4---4-----4---|-----0-----0--------|
|-0-------0-----0-|-----0-----0-----|-0-------0-----0-|-2h3-----2----------|
|-----------------|-----------------|-----------------|---------------3-0--|


  E E E E E E E E   E E E E E E E E   E E E E E E E E   E E E E E E E E
|-----------------|-----------------|-----------------|-----------------|
|-----------------|-----------------|-----------------|-----------------|
|-7---9-----9-----|-9-----9-----9---|-7---9-----9-----|-9-----9-----9---|
|---5---7-----7---|---7-----7-----7-|---5---7-----7---|---7-----7-----7-|
|-0-------0-----0-|-----0-----0-----|-0-------0-----0-|-----0-----0-----|
|-----------------|-----------------|-----------------|-----------------|


   Chorus
    E E E E E E E E   E E E E E E E E   E E E E E E E E   E E E E E E E E
||------------------|---------0-------|-----------------|------------------|
||o---------3-------|-------0---0-----|---------3-------|------------------|
||------0-------0---|-----5-------5---|-----0-----------|-----7-------0----|
||----0---0---0-----|---7-------------|---0---0---0-0---|---7---7---0---0--|
||o---------------2-|-0-------------7-|---------------2-|-5-------3--------|
||--3---------------|-----------------|-3---------------|------------------|


  1.
                               |-3-|
  E E E E E E E E   E E  E E E S S S E E
|-----------------|----------------------|
|-----------------|-8---10---8-7h8p7-----|
|-----7---6S7S9---|------------------9-7-|
|---7---7-------7-|---7----7-------------|
|-0---------------|----------------------|
|-----------------|----------------------|


  E  E  E E E E E E   E E E E E E E E
|-------------------|--------------------||
|-------------------|-------------------o||
|-6-(6)-6---7-6---4-|---7---6---2---0----||
|-7h=9--7---9-7---5-|---9---7---2---0----||
|---------0-----0---|-0---0---0---0-----o||
|-------------------|--------------------||


  E E E E E E E E   E E E E E E E E   E E E E E E E E   E E E E E E E E
|-----------------|-----------------|-----------------|-----------------*|
|-----------------|-----------------|-----------------|-----------------*|
|-7---9-----9-----|-9-----9-----9---|-7---9-----9-----|-9-----9-----9---*|
|---5---7-----7---|---7-----7-----7-|---5---7-----7---|---7-----7-----7-*|
|-0-------0-----0-|-----0-----0-----|-0-------0-----0-|-----0-----0-----*|
|-----------------|-----------------|-----------------|-----------------*|

Then just play from the vesre again and your done!


Duration Legend
---------------
W - whole; H - half; Q - quarter; E - 8th; S - 16th; T - 32nd; X - 64th; a - acciaccatura
+ - note tied to previous; . - note dotted; .. - note double dotted
Uncapitalized letters represent notes that are staccato (1/2 duration)
Irregular groupings are notated above the duration line
Duration letters will always appear directly above the note/fret number it represents the
duration for.  Duration letters with no fret number below them represent rests.  Multi-
bar rests are notated in the form Wxn, where n is the number of bars to rest for.  Low
melody durations appear below the staff

Tablature Legend
----------------
 h   - hammer-on
 p   - pull-off
 b   - bend
 pb  - pre-bend
 r   - bend release (if no number after the r, then release immediately)
 /\  - slide into or out of (from/to "nowhere")
 s   - legato slide
 S   - shift slide
  - natural harmonic
[n]  - artificial harmonic
n(n) - tapped harmonic
 ~   - vibrato
 tr  - trill
 T   - tap
 TP  - trem. picking
 PM  - palm muting
\n/  - tremolo bar dip; n = amount to dip
 \n  - tremolo bar down
 n/  - tremolo bar up
/n\  - tremolo bar inverted dip
 =   - hold bend; also acts as connecting device for hammers/pulls
 <>  - volume swell (louder/softer)
 x   - on rhythm slash represents muted slash
 o   - on rhythm slash represents single note slash

Misc Legend
-----------
 |  - bar
||  - double bar
||o - repeat start
o|| - repeat end
*|  - double bar (ending)
 :  - bar (freetime)
 $  - Segno
 &  - Coda
Tempo markers -  = BPM(8/16=s8/s16), where s8 = swing 8ths, s16 = swing 16ths


***************************************************************************************
* Generated using Power Tab Editor by Brad Larsen - http://powertab.guitarnetwork.org *
***************************************************************************************
Suggest correction new What's this?
You can suggest a correction to this tab. Community and Mods will review your correction and vote to approve or reject it.
comments
print report bad tab
4 comments total. Showing first comments.
+2 reply
ezzatron 200 wrote on July 28 2012, 10:41 pm

Thanks for the tab! I think this section:


E E E E E E E E S S E E E E E E E
|-----------------|-------------------|
|-1---3-----3-----|-------------------|
|-----------------|-------0-----0-----|
|---4---4-----4---|-----0-----0-------|
|-0-------0-----0-|-2h3-----2---------|
|-----------------|---------------3-0-|


should probably be like this:


E E E E E E E E S S E E E E E E E
|-----------------|-------------------|
|-----------------|-------------------|
|-5---7-----7-----|-------0-----0-----|
|---4---4-----4---|-----0-----0-------|
|-0-------0-----0-|-2h3-----2---------|
|-----------------|---------------3-0-|


it's a much easier transition from the previous riff.

+1 reply
carps08 15 wrote on January 30 2013, 01:53 pm

Also this "Chorus" bit
||------------------|---------0-------|-----------------|------------------|
||o---------3-------|-------0---0-----|---------3-------|------------------|
||------0-------0---|-----5-------5---|-----0-----------|-----7-------0----|
||----0---0---0-----|---7-------------|---0---0---0-0---|---7---7---0---0--|
||o---------------2-|-0-------------7-|---------------2-|-5-------3--------|
||--3---------------|-----------------|-3---------------|------------------|

Should be:
||------------------|---------0-------|-----------------|------------------|
||o---------3-------|-------0---0-----|---------3-------|-----3------------|
||------0-----0---0-|-----5-------5---|-----0-----0---0-|---2---0-----0----|
||----0---0-----0---|---2-----------2-|---0---0-----0---|-0---------2---2--|
||o-----------------|-0---------------|-----------------|---------3--------|
||--3---------------|-----------------|-3---------------|------------------|

You can see this clearly at the 4:17 mark here http://www.youtube.com/watch?v=fyM0zlk39PA

0 reply
carps08 15 wrote on January 30 2013, 01:55 pm

That correction screwed up, you get the idea tho...

guest
You may want to rate the tab now too:
select rating
Please do not post tabs as comments. Select "correction" instead!