Oops, an error
Loading. Please wait.

Credence Tab

version 1
version 1

Whole song

Interactive

by Opeth
28,306 views 45 this week
8 commentsread comments
1 2 3 4 5
x 10
add to favorites
launch autoscroll
font size
0
reset
how to read this tab
guitar tuner
Autoscroll
slow
fast
+/-
esc
set tempo
stop
Transcribed by : Sperling Andor (nepenthe@freemail.hu)
                 and Heimo Kanerva (heimo.kanerva@pp.inet.fi)

For questions, comments, newest version, or corrections contact us.

Check out Opeth's Domain, the best place to find Opeth tabs: http://darkwood.com/opeth/

Check Out DEATH WARP, With More Transcriptions On It: http://tiger.towson.edu/~dalvis1

OPETH - Credence

 0:22 - 1:20  play 2 times (both guitar)
e|--------------------------------------------------------------------------|
B|----------0-----------------0-------------------0-----------------0-------|
G|-------5-----5-----------5-----5-------------0-----0-----------0-----0----|
D|----7-----------7-----7-----------7-------8-----------8-----8-----------8-|
A|-0-----------------0-----------------0h6-----------------6----------------|
E|--------------------------------------------------------------------------|

e|--------3-----0-------0---------------------------------------------------|
B|--------------2-------2--------0-----0-----0-----0------------------------|
G|--0-----3-------------------3-----3-----3-----3-----3---------------------|
D|--------------------------------------------------------------------------|
A|--------------------------------------------------------------------------|
E|--------------------------------------------------------------------------|

e|--------------------------------------------------------------------------|
B|----------0-----------------0-------------------0-----------------0-------|
G|-------5-----5-----------5-----5-------------0-----0-----------0-----0----|
D|----7-----------7-----7-----------7-------8-----------8-----8-----------8-|
A|-0-----------------0-----------------0h6-----------------6----------------|
E|--------------------------------------------------------------------------|

e|------------------3----------------0-----------------6--------------------|
B|------------------3-------------------0--------------5--------------------|
G|--0-------------0---------0--------------3-----------3--------------------|
D|--------4-----1--------------4--------------2-----------------------------|
A|-----------------------------------------------1--------------------------|
E|--------------------------0-----0-----------------0-----------------------|

 1:21 - 1:31  play 1 time
e|--5--------5--------5-----------5-----------------------------------|
B|-----6--------6--------5--5--------5-----------5--------0--s5----3--|
G|--------7--------6--------5-----------5-----5--5-----------s5----4--| gtr.1
D|--------------------------------7--------6-----------6--------------|
A|--5--------4--------3-----------------------------7-----------------|
E|--------------------------------------------------------------------|

e|--------------------------------------------------------------------|
B|--6-----------------------5-----------------------------0-h-1---(1)-|
G|-----7--------------------5-----------------------------0-h-2---(2)-| gtr.2
D|--------7--------7--7--5-----------------------5--------------------|
A|--5-----------4--4-----------------------7--7-----7--5--------------|
E|-----------5--------------------5--7--8-----------------------------|

e|--------------------------------------------------------------------|
B|-(1)-------0-h1--3-s5-----8--8s10-----------------------------------|
G|--------2--------------5--------------------------------------------| gtr.1
D|-----2--------------------------------------------------------------|
A|--0-----------------------------------------------------------------|
E|--------------------------------------------------------------------|

e|--8-p5--------------5-----------------------------------------------|
B|--------5--------8-----5-h8--8s10-----------------------------------|
G|-----------5-h7-----------------------------------------------------| gtr.2
D|--------------------------------------------------------------------|
A|--------------------------------------------------------------------|
E|--------------------------------------------------------------------|

 1:32 - 2:15  play 6 times
e|---------------------------------------------------------------------|
B|----------1s3--0--1--------1s3--0-----------0----0h1--1--------------|
G|-------2--2s4--0--2--------2s4--0--------0--0----0h2--2--------------| gtr.1
D|----2-------------------2-------------2------------------------------|
A|-0-------------------0---------------------------------------3p2p0h2-|
E|-----------------------------------0---------------------0h1---------|

e|---------------------------------------------------------------------|
B|----------1s3--0--1--------1s3--0-----------0----0h1--1----0---------|
G|-------2--2s4--0--2--------2s4--0--------0--0----0h2--2----0----0----| gtr.2
D|----2-------------------2-------------2------------------------------|
A|-0-------------------0-----------------------------------------------|
E|-----------------------------------0---------------------------------|

 2:16 - 3:00  play 6 times
e|--------------------------------------------5----3----------------|
B|---------------------------------------5s6--6----5----------------|
G|--------2--2h3----2-------0--0--0h2-------------------0--2--------| gtr.1
D|-----0--------------------3--3------------------------0-----2--3--|
A|--1--------------------0---------------------------------------5--|
E|------------------------------------------------------------------|

e|--------------------------0--0--0-----------5----3----------------|
B|--------------------------2--2--0------5s6--6----5----3-s5--1--3--|
G|--------2--2h3----2-------0--0--0------------------------------2--| gtr.2
D|-----0------------------------------------------------3-s5--2--3--|
A|--1--------------------0------------------------------------------|
E|------------------------------------------------------------------|

 3:01 - 3:29  play 4 times
e|---------------------------------------------------------------------|
B|----------1s3--0--1--------1s3--0-----------0----0h1--1--------------|
G|-------2--2s4--0--2--------2s4--0--------0--0----0h2--2--------------| gtr.1
D|----2-------------------2-------------2------------------------------|
A|-0-------------------0---------------------------------------3p2p0h2-|
E|-----------------------------------0---------------------0h1---------|

e|---------------------------------------------------------------------|
B|----------1s3--0--1--------1s3--0-----------0----0h1--1----0---------|
G|-------2--2s4--0--2--------2s4--0--------0--0----0h2--2----0----0----| gtr.2
D|----2-------------------2-------------2------------------------------|
A|-0-------------------0-----------------------------------------------|
E|-----------------------------------0---------------------------------|

 3:30 - 4:02  play 4 times
e|-------------------------------------*-------5----3----------------|
B|-------------------------------------|--5s6--6----5----------------|
G|--------2--2h3----2-------0--0--0h2--|-----------------0--2--------| gtr.1
D|-----0--------------------3--3-------|-----------------0-----2--3--|
A|--1--------------------0-------------|--------------------------5--|
E|-------------------------------------|-----------------------------|

e|--------------------------0--0--0----*-------5----3----------------|
B|--------------------------2--2--0----|--5s6--6----5----3-s5--1--3--|
G|--------2--2h3----2-------0--0--0----|--------------------------2--| gtr.2
D|-----0-------------------------------|-----------------3-s5--2--3--|
A|--1--------------------0-------------|-----------------------------|
E|-------------------------------------|-----------------------------|
                                                                    |
last ending    e|---------------------------------------------------|
from '*'       B|------------------2--------------------------------|
both guitars : G|--------2--2h3-------3-----------------------------|
               D|-----0-----------------4--3h4p3h4p3h4p3------------|
               A|--1----------------------------------------5--5s7--|
               E|---------------------------------------------------|

 4:02 - 5:25  play 20 times (fades out)
e|----------3--3--------2--2--|
B|----------5--5--3--3--3--3--|
G|----------4--4--4--4--2--2--| gtr.1
D|----------------------------|
A|----------------------------|
E|--0--(0)--------------------|

 4:09 - 5:25  play 8 times (fades out)
e|--0----------12--|---------------------------------------------------|
B|--0--------------|------5--3----------------5------------------------|
G|--0----11s12-----|:-------------5--4-4---------4s2------------------:| gtr.2
D|--4--------------|:-----------------------------------5p4--4h5p4p2--:|
A|--7--------------|---------------------------------------------------|
E|--0--------------|---0--------------------0--------------------------|


************************************

   key  h - hammer on
        p - pull off
        s - slide
        t - tremolo
      ... - echo
       () - silently, ghost note
       [] - harmonics
        X - repeat aX times
        * - note

************************************
Suggest correction
comments
print report bad tab
8 comments total. Showing first comments.
+1 reply
guitar_rabbit 10 Nov 21, 2005 01:17 PM

great tab but on that last little riff when he sings the word "karma" i'm pretty sure it's played more like this.
|------------------------------------------------------|
|------------------/2-----------------------------------|
|--------2--2h3-------3--------------------------------|
|-----0-----------------/6-4--3h4p3h4p3h4p3------------|
|--1-------------------------------------------5--5s7--|
|------------------------------------------------------|

0 reply
-Tempest-07 10 Nov 06, 2006 10:44 PM

http://www.youtube.com/watch?v=AMeCFRnE0rA

They play a part of Credence in this video. You can see they play it differently. This tab is pretty accurate though, same note, different fret.

+1 reply
Ilikathemusic 10 Nov 14, 2006 04:37 PM

Actually this is how u play that one part


|------------------------------------------5---3------------------|
|------------------------------------5s6-------5------------------|
|----------------------------------------------------0---2-----3--|
|-------7-7s8-7----5--3--5s7-------------------------0-----2---5--|
|----5------------------------------------------------------------|
|-6---------------------------------------------------------------|
sorry for those two uneven chords, but ya just that first little part. got it from their video

cheers

guest
You may want to rate the tab now too:
select rating
Wanna post a correction for this tab? Suggest correction