Oops, an error
Loading. Please wait.

Demon Of The Fall Tab

version 2
version 2

Whole song

Interactive

10,152 views 18 this week
5 commentsread comments
1 2 3 4 5
excellent!
x 5
add to favorites
launch autoscroll
font size
0
reset
how to read this tab
guitar tuner
Tab Pro tools
  • play this tab
  • loop segment
  • change instrument
  • show fretboard
  • metronome
×
Best way to learn
"Demon Of The Fall"
Autoscroll
slow
fast
+/-
esc
set tempo
stop
Contributor
Submitted by Oranje Bonce   corrections send to serenitypainteddeath@hotmail.com

AS FAR AS I KNOW THESE ARE 100% CORRECT, so if theyre wrong im sorry

Band - Opeth
Song - Demon Of The Fall
Album- My Arms Your Hearse


Tuning: D,A,D,G,B,E (Drop D)
\ = slide down neck
/ = slide up neck
. = palm mute
h = hammer on
p = pull off

Riff 1:
Distorted
Both Guitars
E:--------------------------------------------|
B:--------------------------------------------|
G:-7-7-7-7-7-7-7-7-7-7-7-7-7-7-7-7-7-7-7-7----|
D:-x-x-x-x-x-x-x-x-x-x-x-x-x-x-x-x-x-x-x-x----|
A:-5-5-5-5-5-5-5-5-5-5-5-5-5-5-5-5-5-5-5-5----|
D:-0-0-0-0-0-7-7-7-7-7-6-6-6-6-6-6-6-6-6-6----|

Guitar 1

E:--------------------------------------------|
B:--------------------------------------------|
G:--------------------------------------------|
D:--------------------------------------------|
A:-----6-3-3h5-5-------------6-6-8-9-8-6------|
D:-6h8-----------0-0-0-0-6h8------------------|
                 . . . .
Guitar 2

E:--------------------------------------------|
B:--------------------------------------------|
G:--------------------------------------------|
D:--------------------------------------------|
A:-----6-3-3h5-5-------------6-6-8-9-8-9------|
D:-6h8-----------0-0-0-0-6h8------------------|
                 . . . .
Distorted
(Ending Riff)
E:--------------------------------------------|
B:--------------------------------------------|
G:--------------------------------------------|
D:-6-1-1--------------------------------------|
A:-6-1-1--------------------------------------|
D:-6-1-1--------------------------------------|

Riff 2:
Distorted
E:--------------------------------------------|
B:--------------------------------------------|
G:-14-14-14-14-14/9-9-9-9-9-9\10-10-10-10-10--|
D:--x--x--x--x--x-x-x-x-x-x-x--x--x--x--x--x--|
A:-12-12-12-12-12/7-7-7-7-7-7\-8--8--8--8--8--|
D:--0--0--0--0--0-0-0-0-0-0-0--0--0--0--0--0--|

E:--------------------------------------------|
B:--------------------------------------------|
G:-10-10-10-10-10-10-10-10-10-10-10\14-14-14--|
D:--x--x--x--x--x--x--x--x--x--x--x--x--x--x--|
A:--8--8--8--8--8--8--8--8--8--8--8\12-12-12--|
D:--0--0--0--0--0--0--0--0--0--0--0--0--0--0--|

E:--------------------------------------------|
B:--------------------------------------------|
G:-14-14-14-14-14-14-14-14-14-14-14-14-14-14--|
D:--x--x--x--x--x--x--x--x--x--x--x--x--x--x--|
A:-12-12-12-12-12-12-12-12-12-12-12-12-12-12--|
D:--0--0--0--0--0--0--0--0--0--0--0--0--0--0--|

E:--------------------------------------------|
B:--------------------------------------------|
G:-14-14/7-7-7-7-7-10-10-9-9-9-9-9-9-9\13-13--|
D:--x--x-x-x-x-x-x--x--x-x-x-x-x-x-x-x--x--x--|
A:-12-12/5-5-5-5-5--8--8-7-7-7-7-7-7-7\11-11--|
D:--0--0-0-0-0-0-0--0--0-0-0-0-0-0-0-0--0--0--|

E:--------------------------------------------|
B:--------------------------------------------|
G:-13-13-13-13-12-12-12-12-10-7-7-7-7-7-7-----|
D:--x--x--x--x--x--x--x--x--x-x-x-x-x-x-x-----|
A:-11-11-11-11-10-10-10-10--8-5-5-5-5-5-5-----|
D:--0--0--0--0--0--0--0--0--0-0-0-0-0-0-0-----|

Guitar 2

E:---------------------------------------------|
B:---------------------------------------------|
G:-4-4-4-4-4-6-6-6-6-6-7-7-7-7-7-7-7-7-7-7-7-7-|
D:-x-x-x-x-x-x-x-x-x-x-x-x-x-x-x-x-x-x-x-x-x-x-|
A:-2-2-2-2-2-4-4-4-4-4-5-5-5-5-5-5-5-5-5-5-5-5-|
D:-0-0-0-0-0-0-0-0-0-0-0-0-0-0-0-0-0-0-0-0-0-0-|

E:----------------------------------------------|
B:----------------------------------------------|
G:-7-7-7-9-9-9-9-9-9\10-10-10-10-10-10-10-10-10-|
D:-x-x-x-x-x-x-x-x-x--x--x--x--x--x--x--x--x--x-|
A:-5-5-5-7-7-7-7-7-7\-8--8--8--8--8--8--8--8--8-|
D:-0-0-0-0-0-0-0-0-0--0--0--0--0--0--0--0--0--0-|

E:----------------------------------------------|
B:----------------------------------------------|
G:-10-10-12-12-12-12-12-14-14-14-14-14-14-14-14-|
D:--x--x--x--x--x--x--x--x--x--x--x--x--x--x--x-|
A:--8--8-10-10-10-10-10-12-12-12-12-12-12-12-12-|
D:--0--0--0--0--0--0--0--0--0--0--0--0--0--0--0-|

E:----------------------------------------------|
B:----------------------------------------------|
G:-14-14-13-13-13-13-13-12-12-12-12-12-10-10-10-|
D:--x--x--x--x--x--x--x--x--x--x--x--x--x--x--x-|
A:-12-12-11-11-11-11-11-10-10-10-10-10--8--8--8-|
D:--0--0--0--0--0--0--0--0--0--0--0--0--0--0--0-|

E:----------------------|
B:----------------------|
G:-10-10-10-10-10-10-10-|
D:--x--x--x--x--x--x--x-|
A:--8--8--8--8--8--8--8-|
D:--0--0--0--0--0--0--0-|

Riff 3:
Distorted
E:--------------------------------------------|
B:--------------------------------------------|
G:-8-8-8-8-7-7-7-----------8-8-8-8-7-7-7------|
D:-8-8-8-8-7-7-7-----------8-8-8-8-7-7-7------|
A:-6-6-6-6-5-5-5-----------6-6-6-6-5-5-5------|
D:---------------1\6-6-6-6--------------------|

E:--------------------------------------------|
B:--------------------------------------------|
G:-7-7-5--------------------------------------|
D:-7-7-5---3-3-3------------------------------|
A:-5-5-3---3-3-3------------------------------|
D:-0-5-3---3-3-3------------------------------|

Guitar 2

E:--------------------------------------------|
B:--------------------------------------------|
G:--------------------------------------------|
D:-1-1-1-1-0-0-0-----------1-1-1-1-0-0-0------|
A:-1-1-1-1-0-0-0-----------1-1-1-1-0-0-0------|
D:-1-1-1-1-0-0-0-1\6-6-6-6-1-1-1-1-0-0-0------|

E:--------------------------------------------|
B:--------------------------------------------|
G:-7-7-5--------------------------------------|
D:-7-7-5---3-3-3------------------------------|
A:-5-5-3---3-3-3------------------------------|
D:-0-5-3---3-3-3------------------------------|


Riff 4:
Clean
E:-5-5-5---------------------4-4-4------------|
B:-3-3-3---------------------3-3-3------------|
G:-2-2-2-------------5\7-----2-2-2------------|
D:-0-0-0---------------------0-0-0------------|
A:-------------------3\5----------------------|
D:-------3p0-0-0-0-0-----0-0-------3p0-0-0-0--|

E:-----------3-3-1----------------------------|
B:-----------3-3-3----------------------------|
G:---5\7-----2-2-2-------------5\7------------|
D:-----------0-0-0----------------------------|
A:---3\5-----------------------3\5------------|
D:-0-----0-0-------3p0-0-0-0-0----------------|

E:--------------------------------------------|
B:-5-5--6-6--8--5--11-11----------------------|
G:-x-x--x-x--x--x---x--x----------------------|
D:-2-2--3-3--5--2---8--8----------------------|
A:--------------------------------------------|
D:--------------------------------------------|


Riff 5: (Riff 4 but distorted)


Riff 6:
Clean
(Part 1)
E:---------------------------------------------|
B:---------------------------------------------|
G:---------------------------------------------|
D:---4-------4---4-------4---------------------|
A:-0---0---0---0---0---0-----------------------|
D:-------4-----------4-------------------------|

Riff 7:
Distorted

E:---------------------------------------------|
B:---------------------------------------------|
G:-------------7-7-7-7-7-7/6-6-6-6-6-5-5-5-5-5-|
D:-------------x-x-x-x-x-x-x-x-x-x-x-0-0-0-0-0-|
A:---0-0-0-0-0-5-5-5-5-5-5/4-4-4-4-4-0-0-0-0-0-|
D:---0-0-0-0-0-----------------------0-0-0-0-0-|

E:---------------------------------------------|
B:---------------------------------------------|
G:---------------------------------------------|
D:---------------10-9-7-6-5--------------------|
A:---------5-7\8-------------8-----------------|
D:-8-7-0-7-------------------------------------|

Riff 8:
Distorted
Guitar 1
E:---------------------------------------------| Guitar Repeated 4 Times
B:---------------------------------------------|
G:-3-3-3-3-3-3\8-8-8-8-8-8\9-9-9-9-9-9-9-9-9-9-|
D:-x-x-x-x-x-x-x-x-x-x-x-x-x-x-x-x-x-x-x-x-x-x-|
A:-1-1-1-1-1-1\6-6-6-6-6-6\7-7-7-7-7-7-7-7-7-7-|
D:---------------------------------------------|

Distorted
Guitar 2
E:----------------------------------------------| Guitar 2 repeated Twice
B:----------------------------------------------|
G:-6-6-6-6-6\13-13-13-13-13/5-5-5-5-5-5-5-5-5-5-|
D:-x-x-x-x-x--x--x--x--x--x-x-x-x-x-x-x-x-x-x-x-|
A:-4-4-4-4-4\11-11-11-11-11/3-3-3-3-3-3-3-3-3-3-|
D:----------------------------------------------|

E:-----------------------------------------------|
B:-----------------------------------------------|
G:-6-6-6-6-6\13-13-13-13-13/12\13/13-13-13-13-13-|
D:-x-x-x-x-x--x--x--x--x--x--x--x--x--x--x--x--x-|
A:-4-4-4-4-4\11-11-11-11-11/10\11/10-10-10-10-10-|
D:-----------------------------------------------|

E:----------------|
B:----------------|
G:-12-12-12-12-12-|
D:--x--x--x--x--x-|
A:-10-10-10-10-10-|
D:----------------|

Both guitars (ending of riff)

E:---------------|
B:-9-9-9-9-9-9-9-|
G:-7-7-7-7-7-7-7-|
D:-6-6-6-6-6-6-6-|
A:---------------|
D:---------------|


Riff 9 :
Clean
(Part 1)
E:-0-----------0-------------------------------|
B:---4-------4---4-------4---------------------|
G:-----0---0-------0---0-----------------------|
D:-------4-----------4-------------------------|
A:---------------------------------------------|
D:---------------------------------------------|

Distorted
(Ending of riff)
E:---------------------------------------------|
B:---------------------------------------------|
G:---------------------------------------------|
D:---------------------------------------------|
A:-5-4---------5-------------------------------|
D:-----0-0-2-3---5-6-6-------------------------|

Riff 10:
Distorted

Guitar 1

E:----------------------------------------------|
B:----------------------------------------------|
G:----------------------------------------------|
D:-8-8-8-8-8-8-8-8-8-8-7-7-7-7-7-10-10-10-10-10-|
A:-5-5-5-5-5-5-5-5-5-5-8-8-8-8-8--8--8--8--8--8-|
D:-5-5-5-5-5-5-5-5-5-5-0-0-0-0-0--0--0--0--0--0-|

E:---------------------------------------------|
B:---------------------------------------------|
G:---------------------------------------------|
D:-9-9-9-9-9-9-9-9-9-9-9-9-9-9-9-9-9-9-9-9-----|
A:-7-7-7-7-7-7-7-7-7-7-7-7-7-7-7-7-7-7-7-7-----|
D:-7-7-7-7-7-7-7-7-7-7-7-7-7-7-7-7-7-7-7-7-----|

Guitar 2
E:---------------------------------------------|
B:---------------------------------------------|
G:-7-7-7-7-7-7-7-7-7-7-14-14-14-14-14-14-14-14-|
D:-8-8-8-8-8-8-8-8-8-8--x--x--x--x--x--x--x--x-|
A:-5-5-5-5-5-5-5-5-5-5-12-12-12-12-12-12-12-12-|
D:-5-5-5-5-5-5-5-5-5-5-------------------------|

E:-----------------------------------------------|
B:-----------------------------------------------|
G:-14-14/9-9-9-9-9-9-9-9-9-9-9-9-9-9-9-9-9-9-9-9-|
D:--x--x-x-x-x-x-x-x-x-x-x-x-x-x-x-x-x-x-x-x-x-x-|
A:-12-12/7-7-7-7-7-7-7-7-7-7-7-7-7-7-7-7-7-7-7-7-|
D:-----------------------------------------------|

Riff 11:

Lead:
E:---------------------------------------------|
B:---------------------------------------------|
G:---------------------------------------------|
D:---------------------------------------------|
A:-12-10-5---8h10-10\12-15-10-10h12-10-8-7-----|
D:---------------------------------------------|

Rythym:
E:----------------------------------------------|
B:----------------------------------------------|
G:----------------------------------------------|
D:-7-7-7-7-7-7-7-10-10-10-10-10-10-10-5-5-5-5-5-|
A:-5-5-5-5-5-5-5--8--8--8--8--8--8--8-3-3-3-3-3-|
D:-5-5-5-5-5-5-5--8--8--8--8--8--8--8-3-3-3-3-3-|

E:---------------------------------------------|
B:---------------------------------------------|
G:---------------------------------------------|
D:-5-5-5-5-5-5-5-5-5---------------------------|
A:-3-3-5-5-5-5-5-5-5---------------------------|
D:-3-3-0-0-0-0-0-0-0---------------------------|

Riff 13 (End):
Clean
E:---------------------------------------------|
B:---------------------------------------------|
G:---------------------------------------------|
D:-----7-----7-----10-----10-----5-----5-----5-|
A:---5-----5-----8------8------3-----3-----5---|
D:-5-----5-----8------8------3-----3-----0-----|

E:---------------------------------------------|
B:---------------------------------------------|
G:---------------------------------------------|
D:-----5---------------------------------------|
A:---5-----------------------------------------|
D:-0-------------------------------------------|

With the rythym of riff 12 but clean.
comments
print report bad tab
5 comments total. Showing first comments.
0 reply
guitar_rabbit wrote on November 4 2005, 08:34 pm

as far as i've gotten on your tabs they sound pretty much perfect. there are a few conflicts i have with it thoug they don't really matter right now though as i don't have a copy of the song with me right now. i'll study your tab for a night or 2 and let you know what i think later... good job

0 reply
guitar_rabbit wrote on November 18 2005, 03:13 pm

you did a great job cowboy just a few minor mistakes nothing that couldn't be ignored but incase you're a perfectionist like me here's some shiznat

Between riff 6 and 7 is a little doodle-bah thing which goes thusly
distorted
E:---------|
B:---------|
G:---------|
D:---------|
A:-5-4-0---|
D:-------0-|

Just gs guy no #s
E:-----------------------------------------------|
B:-----------------------------------------------|
G:-6-6-6-6-6\13-13-13-13-13/12\13/12-12-12-12-12-|
D:-x-x-x-x-x--x--x--x--x--x--x--x--x--x--x--x--x-|
A:-4-4-4-4-4\11-11-11-11-11/10\11/10-10-10-10-10-|
D:-----------------------------------------------|

Riff 10 guitar 2
First this then what you have. repeat. not much difference but it?s there
E:---------------------------------------------|
B:---------------------------------------------|
G:-7-7-7-7-7-7-7-7-7-7-14-14-14-14-14-/7--7--7-|
D:-8-8-8-8-8-8-8-8-8-8--x--x--x--x--x-/x--x--x-|
A:-5-5-5-5-5-5-5-5-5-5-12-12-12-12-12-/5--5--5-|
D:-5-5-5-5-5-5-5-5-5-5-------------------------|

E:-----------------------------------------------|
B:-----------------------------------------------|
G:--7-7/-9-9-9-9-9-9-9-9-9-9-9-9-9-9-9-9-9-9-9-9-|
D:--x-x--x-x-x-x-x-x-x-x-x-x-x-x-x-x-x-x-x-x-x-x-|
A:--5-5/-7-7-7-7-7-7-7-7-7-7-7-7-7-7-7-7-7-7-7-7-|
D:-----------------------------------------------|

Riff 11:

Lead: try this it?s much easier
E:---------------------------------------------|
B:---------------------------------------------|
G:-/2-0------0-2-/5-0-2------------------------|
D:------0-/3------------/5-3-2-----------------|
A:---------------------------------------------|
D:---------------------------------------------|

Pretty much correct but try this instead
Rythym:
E:----------------------------------------------|
B:----------------------------------------------|
G:----------------------------------------------|
D:-8-8-8-8-8-8-8-10-10-10-10-10-10-10-5-5-5-5-5-|
A:-5-5-5-5-5-5-5--8--8--8--8--8--8--8-3-3-3-3-3-|
D:-5-5-5-5-5-5-5--8--8--8--8--8--8--8-3-3-3-3-3-|

E:---------------------------------------------|
B:---------------------------------------------|
G:---------------------------------------------|
D:-5-5-5-5-5-5-5-5-5---------------------------|
A:-3-3-5-5-5-5-5-5-5---------------------------|
D:-3-3-0-0-0-0-0-0-0---------------------------|

After the end of the two guitars answering each other they do this little ditty
E:---------------------------------------------|
B:---------------------------------------------|
G:-/2-0------0-2-/5-0-2-/3-2-0-----------------|
D:------0-/3-----------------------------------|
A:---------------------------------------------|
D:---------------------------------------------|

Riff 13 (End):
Same thing here
Clean
E:---------------------------------------------|
B:---------------------------------------------|
G:---------------------------------------------|
D:-----8-----8-----10-----10-----5-----5-----5-|
A:---5-----5-----8------8------3-----3-----5---|
D:-5-----5-----8------8------3-----3-----0-----|

Don?t play this part second time around
E:---------------------------------------------|
B:---------------------------------------------|
G:---------------------------------------------|
D:-----5---------------------------------------|
A:---5-----------------------------------------|
D:-0-------------------------------------------|

0 reply
Dante's Inferno wrote on December 4 2005, 08:28 am

Better than the last tab in terms of knowing where you are. The other one was really confusing.

I want to post or [tab]
guest
You may want to rate the tab now too:
select rating
Please do not post tabs as comments. Select "correction" instead!