Oops, an error
Loading. Please wait.

Demon Of The Fall Tab

version 3
version 3

Whole song

Interactive

3,379 views 6 this week
1 commentread comment
1 2 3 4 5
accurate
x 3
add to favorites
launch autoscroll
font size
0
reset
how to read this tab
guitar tuner
Tab Pro tools
  • play this tab
  • loop segment
  • change instrument
  • show fretboard
  • metronome
×
Best way to learn
"Demon Of The Fall"
Autoscroll
slow
fast
+/-
esc
set tempo
stop
Contributor
Difficulty
Tuning
intermediate
D A D G B E
-------------------------------------------------------------------------------
                        Opeth- Demon of the Fall
-------------------------------------------------------------------------------
Tabbed by: James TH
Email: punt_jam14@hotmail.com

Tuning: Drop D ( EBGDAD )

For simplicity i have named both parts for the guitars 1 & 2 "phases" throughout the 
because there is no concrete chorus or verses to follow. There are 10 in total:

guitar 1 Intro
|-------------------------------|----------------------------------|
|-------------------------------|----------------------------------|
|--777777-777777-777777777777-|------------------------------------|
|-------------------------------|-----1-1-----------1-1-3-4p3------|
|--555555-555555-555555555555-|-1p0-----3-5-5-1p0-----------6------|
|--000000-777777-666666666666-|------------------------------------|

guitar 2 intro
|-------------------------------|-----------------------------------|
|-------------------------------|-----------------------------------|
|-------------------------------|-----------------------------------|
|-----above---------------------|-----1-1------------1-1-3-4p3-4----|
|-------------------------------|-1p0-----3-5-5-1p0-----------------|
|-------------------------------|-----------------------------------|

fill
|----------------|--------------|
|----------------|--------------|
|----------------|--------------|
|----------------|--------------|
|-----1-1--------|--0-1-0-1-----|
|-1p0-----3-5-5-.|--0-1-0-1-----|


guitar 1- phase 1
strum these chords along with the song
|-----------------------------------------------|
|-----------------------------------------------|
|-14-9--9/10-----14---7--10-9-13-12-10-7--------|
|-----------------------------------------------|
|-12-7--7/8------12---5--8--7-11-10-8--5--------|
|-----------------------------------------------|

guitar 2- phase 1
|-----------------------------------------------|
|-----------------------------------------------|
|-4-6-6/7--9-9/10---10/12/14---13-12-10--7------|
|-----------------------------------------------|
|-2-4-4/5--7-7/8----8-/10/12---11-10-8---5------|
|-----------------------------------------------|

repeat the above with singing.


guitar 1- phase 2
|-----------------------------------.------------|
|-----------------------------------.------------|
|-888887777-------------888887777-.--------------|
|-----------------------------------.--7--7--5---|
|-666665555-------------666665555-.--5--5--3-----|
|------------0-1-01/6^~------------.--0--5--3----|

guitar 2- phase 2
|-----------------------------------.------------|
|-----------------------------------.------------|
|-----------------------------------.------------|
|-----------------------------------.--7--7--5---|
|-111110000------------------------.--5--5--3----|
|-111110000-0-1-01/6^~--111110000..--0--5--3-----|

last time let note ring...

"before merging with the grey..."

guitar 1- phase 3 (acoustic)
|-555----------444-----------331-------------------------------|
|-333----------333-----------333------------5-6-8-5-11-10------|
|-222-----5/7--222-----.5/7--222------.5/7---------------------|
|--------------------------------------------2-3-5-2-8--7------|
|---------3/5-----------3/5------------3/5---------------------|
|-----3p0----------3p0------------3p0--------------------------|


play again with distortion.... and then with singing
"demon... demon of the fall..."

guitar 1 & 2
|-555----------444-----------331-------------------------------|
|-333----------333-----------333------------5-6-8-5-11-10------|
|-222-----5/7--222-----.5/7--.222------5/7---------------------|
|--------------------------------------------2-3-5-2-8--7------|
|---------3/5-----------3/5------------3/5---------------------|
|-----3p0----------3p0------------3p0--------------------------|


guitar 1- fill
|--------------------------------|
|--------------------------------|
|--------------------------------|
|-------4---4-------4---4--4-----|
|-----0---0---0---0---0--0-------|
|---4-----------4----------------|

guitars 1 & 2- phase 4
|-------------------------------------------------------------|
|-------------------------------------------------------------|
|-----------77777-66666.--22222-----------------5-4-----------|
|-------------------------.00000---------------------7-6-5----|
|-----------55555-44444.--00000----------5-7-8------------8---|
|--0-0-0-0----------------00000--0-0-0-0-0-0-0----------------|

guitar 1- phase 5
|----------------------------------------------------------------------------|
|----------------------------------------------------------------------------|
|----------------------------------------------------------------------------|
|--------666666--------------------666666-5h6p5~---------666666--------------|
|-444444--------333333333--444444----------------444444---------333333-------|
|----------------------------------------------------------------------------|

|--------------------------------------------|
|----------------------------9-9-9-9-9-9-----|
|----------------------------7-7-7-7-7-7-----|
|--------666666-------------.6-6-6-6-6-6-----|
|-444444--------33333-7~---------------------|
|--------------------------------------------|

guitar 2- phase 5
|----------------------------------------------------------------------------|
|----------------------------------------------------------------------------|
|-33333-88888-55555--33333-88888-99999--33333-88888-55555-33333-88888--------|
|----------------------------------------------------------------------------|
|-11111-66666-33333--11111-66666-77777--11111-66666-33333-11111-66666--------|
|----------------------------------------------------------------------------|

|------------------------|
|---------9-9-9-9-9-9----|
|-55559--.7-7-7-7-7-7----|
|---------6-6-6-6-6-6----|
|-33337------------------|
|------------------------|

guitar 1 only- phase 6


|----0-----------0-----------0--------------|
|------4-------4---4-------4---4------------|
|--------0---0-------0---0-------0----------|repeat
|----------4-----------4-----------4--------|
|-------------------------------------------|
|-------------------------------------------|

guitar 2 - phase 7 breakdown

|------------------------|
|------------------------|
|------------------------|
|------------------------|
|-5-4--0------5--6-6~----|
|------0--2-3----6-6~----|

guitar 1 & 2- phase 8
"run away, run away, run awayyyy...."

|--------------------------------------------------------------------------|
|--------------------------------------------------------------------------|
|-------------14141414--.7777-99999999--------------14141414-99999999------|
|--------------------------------------------------------------------------|
|--55555555--12121212---5555-77777777--555555555--12121212-77777777--------|
|--55555555------------------------------555555555-------------------------|

guitar 1- phase 9
|----------------------------------------------------------------------------|
|----------------------------------------------------------------------------|
|----------------------------------------------------------------------------|
|----------------------------------------------------------------------------|
|-5-5-5-5-5-5-5-5-8-8-8-8-8-8-8-8-3-3-3-3-3-3-3-3-0-0-0-0-0-0-0-0------------|
|-5-5-5-5-5-5-5-5-8-8-8-8-8-8-8-8-3-3-3-3-3-3-3-3-0-0-0-0-0-0-0-0------------|

guitar 2- phase 9 lead

|--------------------------------------|
|--------------------------------------|
|------------------5-------------------|
|-7-5----3-5-5/7----5-5h7---5-3-2------|
|-----5--------------------------------|
|--------------------------------------|

guitar 1- phase 10 acoustic

|------------------------------------------|
|------------------------------------------|
|------------------------------------------|
|----8---8---10--10---5---5---5---5--------|play twice end on last note and let ring
|---5---5---8---8----3---3---5---5---------|
|--5---5---8---8----3---3---0---0----------|

guitar 2- phase 10 acoustic

|--------------------------------------|
|--------------------------------------|
|------------------5-------------------|
|-7-5----3-5-5/7----5-5h7---5-3-2------|play twice end on last note and let ring
|-----5--------------------------------|
|--------------------------------------|

| /  slide up
| \  slide down
| h  hammer-on
| p  pull-off
| ~  vibrato
| +  harmonic
| x  Mute note

===============================================================================
comments
We did not receive enough feedback on this tab! Please rate:
print report bad tab
1 2 3 4 5
1 comment total.
0 reply
James TH wrote on July 17 2009, 10:18 am

sorry guys. when i did the tab it was done on a mac and the spacing is all unequal so its hard to read in most parts cause i had to put in dots to even everytthing up

I want to post or [tab]
guest
You may want to rate the tab now too:
select rating
Please do not post tabs as comments. Select "correction" instead!