Oops, an error
Loading. Please wait.

Derelict Herds Tab

version 1
version 1

Whole song

Interactive

3,068 views 1 this week
no commentswrite comment
1 2 3 4 5
1 last vote to show rating
add to favorites
launch autoscroll
font size
0
reset
how to read this tab
guitar tuner
Autoscroll
slow
fast
+/-
esc
set tempo
stop
Help us to improve Ultimate-Guitar.com Take our survey!
×
Author
Difficulty
intermediate
-Carlos Jaramillo-


                                Opeth-Derelict Herds


Standard Tunning


Guitar 1:

E----------------------------------|
B----12------11~---12--------------|
G-------10-9-----9---9-10~-9-------|
D----------------------------------|
A----------------------------------|
E----------------------------------|

Guitar 2:

E----------------------------------|
B----------------------------------|
G----------------------------------|
D----------------------------------|
A----2------1---2------------------|
E------1-0-----0--0-1-0------------|

P.M  ------------------                (x4)

_______________________________________________________

Guitar 1:

E----------------------------------|
B----12------11~---12--------------|
G-------10-9-----9---9-10~-9-------|
D----------------------------------|
A----------------------------------|
E----------------------------------|

Guitar 2:

E----------------------------------|
B----------------------------------|
G----------------------------------|
D----4------3---4------------------|
A----2------1---2---3-2------------|
E------1-0-----0--0-1-0------------|     (x8)


_______________________________________________________

(keyboard effects)

"someone died..for looking too far...."

Guitar 1:

E----------------------------------|
B----------------------------------|
G--1~~-----------------------------|
D--2~~-----------------------------|
A--2~~-----------------------------|
E--0~~-----------------------------|

Guitar 2:                                "someone died..

E----------------------------------          E--------------------------------|
B----------------------------------          B--------------------------------|
G-7/9-99-10p9-----99-7-9/10--------          G--9/10-1010-11p10--1010-9-10/11-|
D----------------------------------          D--------------------------------|
A----------------------------------(x8)then  A--------------------------------|
E----------------------------------          E--------------------------------|(x2)


______________________________________________________

...not here, never here"
Guitar 1:

E----------------------------------|
B----------------------------------|
G--1~~-----------------------------|
D--2~~-----------------------------|
A--2~~-----------------------------|
E--0~~-----------------------------|

Guitar 2:

E----------------------------------|
B----------------------------------|
G-7/9-99-10p9-----99-7-9/10--------|
D----------------------------------|
A----------------------------------|
E----------------------------------|(x2)

_______________________________________________________

(solo)

Guitar 1:

E--------------------------------------------------------------------|
B-10~~~---9~~~10~~-------------/13~~12-10-10/12~8~~10/12~~10-10/12~~-|
G------9~~--------9~~~10~7~~9~---------------------------------------|
D--------------------------------------------------------------------|
A--------------------------------------------------------------------|
E--------------------------------------------------------------------| (x2)

then..

----------------------------------------------|
----------------------------------------------|
----------------------------------------------|
--9/14~~~~-14p13---10\9/10\9~--8-8h9~~~~~~-7\-|
--------------------------------9-------------|
----------------------------------------------|


------------------------------------------------------------------------------|
-/12~~-12--11-11/12-12-11-12-14-14/15-14~~~~--12-15/17-15~--------------------|
---------12-----------------------------------------------14-12/14-11~~-7/9~~-|
------------------------------------------------------------------------------|
------------------------------------------------------------------------------|
------------------------------------------------------------------------------|

Guitar 2:  (throughout the solo)

E----------------------------------      E--------------------------------|
B----------------------------------      B--------------------------------|
G-7/9-99-10p9-----99-7-9/10--------      G--9/10-1010-11p10--1010-9-10/11-|
D----------------------------------      D--------------------------------|
A----------------------------------(x2)  A--------------------------------|(x2)
E----------------------------------      E--------------------------------|

________________________________________________________


Guitar 1 & 2 during heavy part:


E-------------------------------------------------------|
B-------------------------------------------------------|
G--9--7-------------------------------------------------|
D--9--7--10--9-9--8-8--7-7--10-10--9-9--10-10--13~------|
A--7--5--10--9-9--8-8--7-7--10-10--9-9--10-10--13~------|
E--------8---7-7--6-6--5-5--8--8---7-7--8--8---11~------|


------------------------------------------------------------|
------------------------------------------------------------|
--9--7------------------------------------------------------|
--9--7--10--9-9--8-8--7-7--10-10--9-9--10-10--13~~~---------|
--7--5--10--9-9--8-8--7-7--10-10--9-9--10-10--12~~~---------|
--------8---7-7--6-6--5-5--8--8---7-7--8--8---11~~~----/12\-|


  "there is a fever, there is a failure...."

E------------------------------------------------------|
B------------------------------------------------------|
G------------------------------------------------------|
D--4-44444/5-55555-55-5/8-88888/9-99999--13-13131313---|
A------------------------------------------------------|
E--2-22222/3-33333-33-3/6-66666/7-77777--11-11111111---|

-----------------------------------------------------------------------|
-----------------------------------------------------------------------|
-----------------------------------------------------------------------|
-12-12121212--9-99--10-1010--4/10~~~   (x4)   (4th time ends  4/10~~~--|
------------------------------------           before the     ---------|
-10-10101010--7-77--8--8-8---2/8~~-------------------------------------| 
2/8~~~-)


_______________________________________________________________


Guitar 1:

E----------------------------------------------------------|
B----------------------------------------------------------|
G--8-88888/9-99999-9-8-9-8h9p8~~---6-66666/7-4~~4/6-4------|
D----------------------------------------------------4~~~--|
A----------------------------------------------------------|
E----------------------------------------------------------|


Guitar 2:

E-----------------------------------------------------------|
B-----------------------------------------------------------|
G--8-88888/999999--999-9999--------6-66666/777----6-4-------|
D-------------------------------------------------6-4-4-----|
A--6-66666/777777--777-7777--------4-44444/555----4-2-4-----|
E-----------------------------------------------------2-----|  (x2)


________________________________________________________________

Guitar 1 & 2:

"there was a mean time, an invitation of sorts..."

E------------------------------------------------------|
B------------------------------------------------------|
G------------------------------------------------------|
D--4-44444/5-55555-55-5/8-88888/9-99999--13-13131313---|
A------------------------------------------------------|
E--2-22222/3-33333-33-3/6-66666/7-77777--11-11111111---|


-----------------------------------------------------------------------|
-----------------------------------------------------------------------|
-----------------------------------------------------------------------|
-12-12121212--9-99--10-1010--4/10~~~   (x4)   (4th time ends  4/10~~~--|
------------------------------------           before the     ---------|
-10-10101010--7-77--8--8-8---2/8~~-------------------------------------| 2/8~~~-)

______________________________________________________________________

Guitar 1:

  "There was a sickness right in the family...."

E----------------------------------|
B----------------------------------|
G--1~~-----------------------------|
D--2~~-----------------------------|
A--2~~-----------------------------|
E--0~~-----------------------------|

Guitar 2:                                     "someone died....

E----------------------------------          E--------------------------------|
B----------------------------------          B--------------------------------|
G-7/9-99-10p9-----99-7-9/10--------          G--9/10-1010-11p10--1010-9-10/11-|
D----------------------------------          D--------------------------------|
A----------------------------------(x8)then  A--------------------------------|
E----------------------------------          E--------------------------------|(x2)


______________________________________________________

  "...not here, never here"

Guitar 1:

E----------------------------------|
B----------------------------------|
G--1~~-----------------------------|
D--2~~-----------------------------|
A--2~~-----------------------------|
E--0~~-----------------------------|

Guitar 2:

E----------------------------------|
B----------------------------------|
G-7/9-99-10p9-----99-7-9/10--------|
D----------------------------------|
A----------------------------------|
E----------------------------------|(x2)

_______________________________________________________

(solo)

Guitar 1:

E--------------------------------------------------------------------|
B-10~~~---9~~~10~~-------------/13~~12-10-10/12~8~~10/12~~10-10/12~~-|
G------9~~--------9~~~10~7~~9~---------------------------------------|
D--------------------------------------------------------------------|
A--------------------------------------------------------------------|
E--------------------------------------------------------------------| (x2)


Guitar 2:  (throughout the solo)

E----------------------------------      E--------------------------------|
B----------------------------------      B--------------------------------|
G-7/9-99-10p9-----99-7-9/10--------      G--9/10-1010-11p10--1010-9-10/11-|
D----------------------------------      D--------------------------------|
A----------------------------------(x2)  A--------------------------------|(x2)
E----------------------------------      E--------------------------------|


___________________________________________________________________


Guitar 1 & 2 during heavy part:


E-------------------------------------------------------|
B-------------------------------------------------------|
G--9--7-------------------------------------------------|
D--9--7--10--9-9--8-8--7-7--10-10--9-9--10-10--13~------|
A--7--5--10--9-9--8-8--7-7--10-10--9-9--10-10--13~------|
E--------8---7-7--6-6--5-5--8--8---7-7--8--8---11~------|


------------------------------------------------------|
------------------------------------------------------|
--9--7------------------------------------------------|
--9--7--10--9-9--8-8--7-7--10-10--9-9--10-10--13~~~---|
--7--5--10--9-9--8-8--7-7--10-10--9-9--10-10--12~~~---|
--------8---7-7--6-6--5-5--8--8---7-7--8--8---11~~~---|


_________________________________________________________________


Guitar 1:

E----------------------------------|
B----12------11~---12--------------|
G-------10-9-----9---9-10~-9-------|
D----------------------------------|
A----------------------------------|
E----------------------------------|

Guitar 2:

E----------------------------------|
B----------------------------------|
G----------------------------------|
D----------------------------------|
A----2------1---2------------------|
E------1-0-----0--0-1-0------------|

P.M  ------------------                (x4)

_______________________________________________________

Guitar 1:

E----------------------------------|
B----12------11~---12--------------|
G-------10-9-----9---9-10~-9-------|
D----------------------------------|
A----------------------------------|
E----------------------------------|

Guitar 2:

E----------------------------------|
B----------------------------------|
G----------------------------------|
D----4------3---4------------------|
A----2------1---2---3-2------------|
E------1-0-----0--0-1-0------------|     (x8)
Suggest correction
Give kudos to tab author, rate the tab!
1 2 3 4 5
comments
print report bad tab
guest
You may want to rate the tab now too:
select rating
Wanna post a correction for this tab? Suggest correction