Oops, an error
Loading. Please wait.

Dirge For November tab

version 2
version 2

Whole song

Interactive

by Opeth
2,962 views 27 this week
no commentswrite comment
1 2 3 4 5
x 6
add to favorites
×
Save as Personal and add changes to this tab that will be seen only by you. Learn more ›
×
You can save this tab as Personal to edit and correct it or add notes. All changes will be seen only by you. Learn more »
launch autoscroll
font size
0
reset
how to read this tab
guitar tuner
edit
Autoscroll
slow
fast
+/-
esc
set tempo
stop
Author
Difficulty
intermediate
Tabber: Lawrence Brown
Email: Loza04@msn.com
Standard Tuning

[Acoustic Intro]
[Finger Picked]
e|--5---------5p3------------------------------------------------5-----3-----1p0h1--|
B|--0-----------------3---p2--------1p0--------------------8-----5-----3-----3------|
G|----------------------------------2----0h2--2------------7-----5-----4-----2------|
D|----------------------------------2----2----3----------8-------7-----5-----0------|
A|--------------------0-------------0----2----3-------/6----------------------------|
E|--0------------------------------------0----1-------------------------------------|

["Time is"]
e|----------|
B|--1----0--|
G|--2----1--|
D|----------|
A|----------|
E|--0----0--|

["Now"]
e|--------------------------------------5p0------------------0------|
B|---------0h1p0-----------8----------3-----3--------------0---0----|
G|------2---------2--------5--------2---------2----------2-------2--|
D|----2---2--------2--/--7-----\--3--------------------3------------|
A|--0------------------0-----------------------------3--------------|
E|-----------------------------------------------0-1----------------|

[Lead]
e|-----|--------------------------7-8~7--------------------|
B|-----|-----------------------10--------------------------|
G|--9~-|--9--7--5--7/9-----7/9----------9\7-5~--7-/9-7/9~--|
D|-----|---------------7~----------------------------------|
A|-----|---------------------------------------------------|
E|-----|---------------------------------------------------|

[Acoustic lick]
e|----------------------------------------------0-5h7-7/8p0----------------|
B|----------0------3p2------------------------0--------------5\3--3\1-1p0--|
G|--------3---3--------3--------------------2---------------------4\2-2----|
D|------4-------4--------4p2-----4\2------3--------------------------------|
A|----4----------------------4h5--------3-------------0--------------------|
E|--2---------------------------------1---------------------------0--------|

[Lead during the lick]
e|----------|
B|----------|
G|--7\4-4~--|
D|----------|
A|----------|
E|----------|

[Main Riff]
[Guitar One]
e|-------------------------------0-----------0-----0----------------------------0--------------|
B|--------------------------6--6-6-6-6--6--6-6--0--0--0--0--8--8--8--7-7--7--7--7--7--7--7--0--|
G|--7--7-7--7---7--7-7-7-7--7--7-7-7-7--7--7-7--0--9--9--9--9--9--9--9-9--9--9--9--9--9--9--0--|
D|------------------------------------------------10-10-10-10-10-10---10-10-10-10-10-10-10-x---|
A|--5--5-5--5---5--5-5-5-5--5--5-5-5-5--5--5-5-----0--0--0--0--0--0----0--0--0--0--0--0--0-----|
E|---------------------------------------------------------------------------------------------|

[Main Riff]
[Guitar Two]
e|-------0-----------0-0---------0-----------0-----0--------------------------0----------------|
B|--0----0--0---0----0-0-0--6--6-6-6-6--6--6-6--0--0--0--0--8--8--8--7-7--7--7--7--7--7--7--0--|
G|--7--7-7--7---7--7-7-7-7--7--7-7-7-7--7--7-7--0--9--9--9--9--9--9--9-9--9--9--9--9--9--9--0--|
D|--0--0-0--0---0--0-0-0-0--0--0-0-0-0--0--0-0-----10-10-10-10-10-10---10-10-10-10-10-10-10-x--|
A|--5--5-5--5---5--5-5-5-5--5--5-5-5-5--5--5-5-----0--0--0--0--0--0----0--0--0--0--0--0--0-----|
E|---------------------------------------------------------------------------------------------|

[EBow Lead]
[Fade in]
e|--------|------------------------------------------------------|
B|--10----|-----------/13----\12------\5-------/10---------------|
G|--------|------------------------------------------------------|
D|--------|------------------------------------------------------|
A|--------|------------------------------------------------------|
E|--------|------------------------------------------------------|

[Guitar Lead]
e|------------------------------------------------------------------|
B|--10/13--13/17--17\--13--10--10/12--12/13-13----------------------|
G|------------------------------------------------------------------|
D|--7/ 10--10/14--14\--10--7---7/ 9---9/-10-10-------10-10--9-7-----|
A|-----------------------------------------------/8-------------7~--|
E|------------------------------------------------------------------|

[Pre verse]
[Guitar One]
e|--2--2-2-2-2-2--2-2-2---2--2-2-2-2-2--2-2------4--4-4-4-4-4---4-4----4--4-4-4-4-4---4-4----|
B|--3--3-3-3-3-3--3-3-3p2-2--2-2-2-2-2--2-2-0-0--5--5-5-5-5-5---5-5-4--4--4-4-4-4-4---4-4----|
G|--4--4-4-4-4-4--4-4-4---2--2-2-2-2-2--2-2-0-0--6--6-6-6-6-6---6-6-4--4--4-4-4-4-4---4-4-0--|
D|--4--4-4-4-4-4--4-4-4---4--4-4-4-4-4--4-4-0-0--6--6-6-6-6-6---6-6----6--6-6-6-6-6---6-6-0--|
A|--2--2-2-2-2-2--2-2-2---4--4-4-4-4-4--4-4------4--4-4-4-4-4---4-4----6--6-6-6-6-6---6-6----|
E|------------------------2--2-2-2-2-2--2-2----------------------------4--4-4-4-4-4---4-4----|

[Guitar Lead]
e|-----------------------------------------------------------------------------|
B|-----------------------------------------------------------------------------|
G|--7~-6-h7p6\4-4h6------8b9b8~-6-6h8~---7~-6-h7p6\4-4h6------8b9b8~-6h8p6\4~--|
D|------------------4-4----------------------------------4-4-------------------|
A|-----------------------------------------------------------------------------|
E|-----------------------------------------------------------------------------|

[Additional Lead]
e|----------------------------------------|
B|----------------------------------------|
G|---------13/14-16-16\13~-13\9---8b9b8~--|
D|------11------------------------x-------|
A|--9-------------------------------------|
E|----------------------------------------|

[Verse Riff]
[Guitar One]
[First time only]
e|-------------------------------------------------------------------------------------------------------|
B|-------0-----0----------0----0-----0-------------------------------------------------------------------|
G|--7--7-7-7-7-7--7-7-7-7-7--7-7-7-7-7--7-7-7-7--8---8--8--8--8--8---8--8--8--8--------0----------0------|
D|--9--9-9-9-9-9--9-9-9-9-9--9-9-9-9-9--9-9-9-9--10--10-10-10-10-10--10-10-10-10-------x----------x------|
A|--5--5-5-5-5-5--5-5-5-5-5--5-5-5-5-5--5-5-5-5--10--10-10-10-10-10--10-10-10-10--6--6-6-6-6-6--6-6-6-6--|
E|------------------------7--7-7-7-7-7--7-7-7-7--8---8--8--8--8--8---8--8--8--8---5--5-5-5-5-5--5-5-5-5--|

e|---------------------------------------------------------------------------------------------|
B|---------------------------------------------------------------------------------------------|
G|------------------------------------------------------------------------------------------0--|
D|--6--6-6-6-6-6--6-6-6\3-3--3-3-3-3-3--3-3-3-3-3/5--5-5-5-5-5--5-5-5-5-5--5-5-5-5-5--5-5-5-0--|
A|---------------------------------------------------------------------------------------------|
E|--4--4-4-4-4-4--4-4-4\1-1--1-1-1-1-1--1-1-1-1-1/3--3-3-3-3-3--3-3-3-3-3--3-3-3-3-3--3-3-3----|

[Every other time]
e|-------------------------------------------------------------------------------------------------------|
B|-------0----------0----------0----------0--------------------------------------------------------------|
G|-------x-------|--x----------x----------x------8---8--8--8--8--8---8--8--8--8--------0----------0------|
D|--6--6-6-6-6-6--6-6-6-6-6--6-6-6-6-6--6-6-6-6--10--10-10-10-10-10--10-10-10-10-------x----------x------|
A|--5--5-5-5-5-5--5-5-5-5-5--5-5-5-5-5--5-5-5-5--10--10-10-10-10-10--10-10-10-10--6--6-6-6-6-6--6-6-6-6--|
E|------------------------7--7-7-7-7-7--7-7-7-7--8---8--8--8--8--8---8--8--8--8---5--5-5-5-5-5--5-5-5-5--|

e|---------------------------------------------------------------------------------------------|
B|---------------------------------------------------------------------------------------------|
G|------------------------------------------------------------------------------------------0--|
D|--6--6-6-6-6-6--6-6-6\3-3--3-3-3-3-3--3-3-3-3-3/5--5-5-5-5-5--5-5-5-5-5--5-5-5-5-5--5-5-5-0--|
A|---------------------------------------------------------------------------------------------|
E|--4--4-4-4-4-4--4-4-4\1-1--1-1-1-1-1--1-1-1-1-1/3--3-3-3-3-3--3-3-3-3-3--3-3-3-3-3--3-3-3----|

[Guitar Two]
e|-------------------------------------------------------------------------------------------|
B|-------------------------------------------------------------------------------------------|
G|--7--7-7-7-7-7--7-7-7-7-7--7-7-7-7-7--7-7-7-7-8--8-8-8-8-8--8-8-8\5-5--5-5-5-5-5--5-5-5/7--|
D|-------------------------------------------------------------------------------------------|
A|--5--5-5-5-5-5--5-5-5-5-5--5-5-5-5-5--5-5-5-5-6--6-6-6-6-6--6-6-6\3-3--3-3-3-3-3--3-3-3/5--|
E|-------------------------------------------------------------------------------------------|

e|------------------------------------------------------------------------------------------------------|
B|------------------------------------------------------------------------------------------------------|
G|--7--7-7-7-7-7--7-7-7/13-13--13-13-13\12-12\8-8--8\7--7-7-7-7-7/8-8-8-8-8-8/10-10-10-10\5-5--5-5-5-5--|
D|------------------------------------------------------------------------------------------------------|
A|--5--5-5-5-5-5--5-5-5/11-11--11-11-11\10-10\6-6--6\5--5-5-5-5-5/6-6-6-6-6-6/8--8--8--8-\3-3--3-3-3-3--|
E|------------------------------------------------------------------------------------------------------|

[Guitar Two]
[Last time only]
e|--------------------------------------------------------------------------------------------------------|
B|--------------------------------------------------------------------------------------------------------|
G|--7--7-7-7-7-7--7-7-7/13-13--13-13-13\12-12\8-8--8\7--7-7-7-7-7/8-8-8-8-8-8/10-10-10-10-10/12-12-12/17--|
D|--------------------------------------------------------------------------------------------------------|
A|--5--5-5-5-5-5--5-5-5/11-11--11-11-11\10-10\6-6--6\5--5-5-5-5-5/6-6-6-6-6-6/8--8--8--8--8-/10-10-10/15--|
E|--------------------------------------------------------------------------------------------------------|

[Hold this note over the interlude]
e|------|
B|------|
G|--17--|
D|------|
A|--15--|
E|------|

[Interlude]
e|--------0---------0--------|
B|--4-4---4-4---4---4-4-4----|
G|--5-5---5-5---5---5-5-5-0--|
D|--5-5---5-5---5---5-5-5-0--|
A|--3-3---0-0---x------------|
E|--------------4------------|

[Bridge]
[Guitar One]
e|--------------------------------------------------|
B|--------------------------------------------------|
G|--------0-----------0-----------0-----------0-----|
D|------5---5-------5-----------5---5-------5-------|
A|----5-------5---5-----------5-------5---5---------|
E|--3-----------3------4\2--3-----------3------4\2--|

[Guitar Two]
e|--------------------------------------------------|
B|--------------------------------------------------|
G|--------0-----1p0---------------0-----1p0---------|
D|------5----------3------------5----------3--------|
A|----5--------------2--------5--------------2------|
E|--3------------------4\2--3------------------4\2--|

[Transition]
e|--------|
B|--------|
G|--5-/8--|
D|--5-/8--|
A|--3-/6--|
E|--------|

[Back to Verse riff, ignoring the first time only section]
e|--------0-0--|
B|--4-4---4-4--|
G|--5-5---5-5--|
D|--5-5---5-5--|
A|--3-3---0-0--|
E|-------------|

[Clean Finger Picked until end]
e|-----|
B|--4--|
G|--5--|
D|--5--|
A|-----|
E|--4--|

[Outro]
(X4)
e|-----------------------------0-------------------------------|
B|---------------------------0---0-----------------------------|
G|--5--5---5--5------------2-------2-p0--------------4--5---2--|
D|--2--2---2--2-2------0h2-----------p0--5---4--0----3--3---3--|
A|--0----0-------------------------------7---7--7--0-0----0-0--|
E|-----------------0h1-------------------0---------------------|

[X2]
e|-----------------------------------------------------|
B|---------------------------6--6-\---------1p0-0------|
G|--1--1---0--0---0--0----------5-\--0-----2----2---5--|
D|--3--3---3--3---0--0---------------2----2---------5--|
A|--3----3-----3--2----2-----4-------3---0-------------|
E|-----------------------3------------------------0-4--|

************************************

| h  Hammer-on
| p  Pull-off
| /  Slide up
| \  Slide down
| ~  Vibrato
| x  Dead note
| b  Bend
 

************************************

            
            
Suggest correction
Creating personal tab
Creating personal tab
You can edit any tab online and save it as your Personal.

You can edit, replace or remove any tab part or add personal notes – all changes will be seen only by you.

Personal tabs can be accessed anytime from any device, even offline.
Learn more »
comments
print report bad tab
guest
You may want to rate the tab now too:
select rating
Wanna post a correction for this tab? Suggest correction