Oops, an error
Loading. Please wait.

Ending Credits Tab

version 2
version 2

Whole song

Interactive

27,011 views 9 this week
4 commentsread comments
1 2 3 4 5
accurate
x 11
add to favorites
launch autoscroll
font size
0
reset
how to read this tab
guitar tuner
Autoscroll
slow
fast
+/-
esc
set tempo
stop
Help us to improve Ultimate-Guitar.com Take our survey!
×
Difficulty
intermediate
this is Opeth  "ending Credits" of the album Damnation
hope yall like it if y'all do give me a shout out  at: fireiblade@yahoo.com
        
         Em11
      0 2 2 0 0 0

Gtr I (E A D G B E) - 'Untitled'
Gtr II (E A D G B E) - 'Untitled'
Gtr III (E A D G B E) - 'Untitled'

   Intro
    Q=87
    Em                     Amadd9
   4/4
    Gtr I
    E. S S S E. E S S E.   E. S S S E. E S S E.
||--0--0-0---0--0-0-0-0--|-0--0-0---0--0-0-0-0--|
||o-0--0-0---0--0-0-0-0--|-0--0-0---0--0-0-0-0--|
||--0--0-0---0--0-0-0-0--|-5--5-5---5--5-5-5-5--|
||--2--2-2---2--2-2-2-2--|-7--7-7---7--7-7-7-7--|
||o-2--2-2---2--2-2-2-2--|-0--0-0---0--0-0-0-0--|
||--0--0-0---0--0-0-0-0--|----------------------|


  B7                                   Em
  E. S S S E. E S S E.   S T T S S S S E. S S S E S S  3x
|-2--2-2---2--2-2-2-2--|--------------------------0-0--||
|-0--0-0---0--0-0-0-0--|--------------------------0-0-o||
|-2--2-2---2--2-2-2-2--|---------------0--------0-0-0--||
|-1--1-1---1--1-1-1-1--|-4h5p4---4-----2--------2-2-2--||
|-2--2-2---2--2-2-2-2--|-------7---5h7-2--------2-2-2-o||
|----------------------|---------------0--2-3-2-0-0-0--||


   Verse 1 & 2
    $
    Em                               Amadd9
    E. S S S E.   E    S S E.          E. S S S E. E S S E.
||--0--0-0---0----0----0-0-0-------|---0--0-0---0--0-0-0-0-------|
||o-0--0-0---0----0----0-0-0-------|---0--0-0---0--0-0-0-0-------|
||--0--0-0---0----0----0-0-0-------|---5--5-5---5--5-5-5-5-------|
||--2--2-2---2----2----2-2-2-------|---7--7-7---7--7-7-7-7-------|
||o-2--2-2---2----2----2-2-2-------|---0--0-0---0--0-0-0-0-------|
||--0--0-0---0----0----0-0-0-------|-----------------------------|
|
|   Gtr II
|   Q    Q      E    E   E    S  S    +H.              E     S S
||---------------------------------|-----------------------------|
||o--------------------------------|------------------------10---|
||-----------------------9----9s11-|-(11)----------------------9-|
||-------9------9h==10-------------|-----------------------------|
||o--------------------------------|-----------------------------|
||---------------------------------|-----------------------------|


  B7                                                                 Em
   E.          S S S E.   E        S   S   E.          S T T S S S S E. S S S E S S
|--2-----------2-2---2----2--------2---2---2--------|---------------------------0-0----|
|--0-----------0-0---0----0--------0---0---0--------|---------------------------0-0----|
|--2-----------2-2---2----2--------2---2---2--------|----------------0--------0-0-0----|
|--1-----------1-1---1----1--------1---1---1--------|--4h5p4---4-----2--------2-2-2----|
|--2-----------2-2---2----2--------2---2---2--------|--------7---5h7-2--------2-2-2----|
|---------------------------------------------------|----------------0--2-3-2-0-0-0----|
|
|                                                      ~~~
|  E      +Q.           E    E        +E       S  S    W
|---------------------------------------------------|----------------------------------|
|-12b13==(12)r--------------12b13====(12)r----12-10-|-12-------------------------------|
|---------------------------------------------------|----------------------------------|
|---------------------------------------------------|----------------------------------|
|---------------------------------------------------|----------------------------------|
|---------------------------------------------------|----------------------------------|


  Em                               Amadd9
  E. S S S E.   E    S S E.          E. S  S  S E. E S S E.
|-0--0-0---0----0----0-0-0-------|---0--0--0----0--0-0-0-0------|
|-0--0-0---0----0----0-0-0-------|---0--0--0----0--0-0-0-0------|
|-0--0-0---0----0----0-0-0-------|---5--5--5----5--5-5-5-5------|
|-2--2-2---2----2----2-2-2-------|---7--7--7----7--7-7-7-7------|
|-2--2-2---2----2----2-2-2-------|---0--0--0----0--0-0-0-0------|
|-0--0-0---0----0----0-0-0-------|------------------------------|
|
| Q    Q      E    E   E    S  S    +Q     S  S Q.     E    S S
|--------------------------------|------------------------------|
|--------------------------------|------------------------------|
|----------------------9----9s11-|-(11)---11s12-9---------------|
|------9------9h==10-------------|--------------------------9p7-|
|--------------------------------|------------------------------|
|--------------------------------|------------------------------|


                                                      To Coda
  B7                                            Em
  E. S S S E. E S S E.           S T T S  S S S E. S S S E S S
|-2--2-2---2--2-2-2-2----------|---------------------------0-0--||
|-0--0-0---0--0-0-0-0----------|---------------------------0-0-o||
|-2--2-2---2--2-2-2-2----------|----------------0--------0-0-0--||
|-1--1-1---1--1-1-1-1----------|-4h5p4----4-----2--------2-2-2--||
|-2--2-2---2--2-2-2-2----------|-------7----5h7-2--------2-2-2-o||
|------------------------------|----------------0--2-3-2-0-0-0--||
|
|                                      ~~
| Q.       H           T T T T   E     H.                  E
|------------------------------|--------------------------------||
|------------------------------|-------------------------------o||
|-8----------------------------|--------------------------------||
|----------9-----------7h9p7p5-|--------------------------------||
|------------------------------|-9-----7-----------------------o||
|------------------------------|--------------------------------||


 Chorus 1
  C                      B7
  Q   E. S  E  E       E  E    +E  E E. S E E. S S S
|-0---0--0--0--0----------2-|--(2)-2-2--2-2-2--2-2-2-|
|-1---1--1--1--1----------0-|--(0)-0-0--0-0-0--0-0-0-|
|-0---0--0--0--0----------2-|--(2)-2-2--2-2-2--2-2-2-|
|-2---2--2--2--2----------1-|--(1)-1-1--1-1-1--1-1-1-|
|-3---3--3--3--3----------2-|--(2)-2-2--2-2-2--2-2-2-|
|---------------------------|------------------------|
|
|                         ~~~~~~~~~
|              |--3--|
| Q   Q     E  S  S  S E  E    +W
|---------------------------|------------------------|
|---------------------------|------------------------|
|----12----12-11h12p11p9-11-|-(11)-------------------|
|---------------------------|------------------------|
|---------------------------|------------------------|
|---------------------------|------------------------|


  Em       Cadd9        C
   Q     E  Q   E     E E   +E  E E. S E E.    S S S
|--0-----0--0---0-------0-|-(0)-0-0--0-0-0-----0-0-0--|
|--0-----0--3---3-------1-|-(1)-1-1--1-1-1-----1-1-1--|
|--0-----0--0---0-------0-|-(0)-0-0--0-0-0-----0-0-0--|
|--2-----2--2---2-------2-|-(2)-2-2--2-2-2-----2-2-2--|
|--2-----2--3---3-------3-|-(3)-3-3--3-3-3-----3-3-3--|
|--0-----0----------------|---------------------------|
|
|                       ~~~~~~~~
|  E  E  E  Q   S  S  E E   +H.             E.     S
|-------------------------|---------------------------|
|-10----------------------|---------------------------|
|----12-11-12--12h14-11-9-|-(9)-----------------------|
|-------------------------|------------------------9h=|
|-------------------------|---------------------------|
|-------------------------|---------------------------|


                                           Bridge
  Am                 B7                     Em       C
   Q  E. S E     E E E   +W                 E. S S S E. E S S E.
|--0--0--0-0-----0---2-|-(2)--------------|-0--0-0-0-0--0-0-0-0-------|
|--1--1--1-1-----1---0-|-(0)--------------|-0--0-0-0-1--1-1-1-1-------|
|--2--2--2-2-----2---2-|-(2)--------------|-0--0-0-0-0--0-0-0-0-------|
|--2--2--2-2-----2---1-|-(1)--------------|-2--2-2-2-2--2-2-2-2-------|
|--0--0--0-0-----0---2-|-(2)--------------|-2--2-2-2-3--3-3-3-3-------|
|----------------------|------------------|-0--0-0-0------------------|
|
|                                   |-3-|
|  H       T  S. E E E   +H..       S S S   Q.       H           S S
|----------------------|------------------|---------------------------|
|----------------------|------------------|---------------------------|
|----------------------|------------------|---------------------------|
|-10-------9h10--9-7-9-|-(9)--------9p7p5-|----------------------7-5--|
|----------------------|------------------|-9--------7----------------|
|----------------------|------------------|---------------------------|


  Em        C
  E. S S  S E. E S S E.
|-0--0-0--0-0--0-0-0-0------|
|-0--0-0--0-1--1-1-1-1------|
|-0--0-0--0-0--0-0-0-0------|
|-2--2-2--2-2--2-2-2-2------|
|-2--2-2--2-3--3-3-3-3------|
|-0--0-0--0-----------------|
|
| Q    S  S H           S S
|---------------------------|
|---------------------------|
|---------------------------|
|-----------------------7-5-|
|-9----9s10-7---------------|
|---------------------------|


                                         D.S. al Coda
  Em       C                 Em        C
  E. S S S E. E S S E.       E. S S  S E. E S S E.
|-0--0-0-0-0--0-0-0-0------|-0--0-0--0-0--0-0-0-0-----|
|-0--0-0-0-1--1-1-1-1------|-0--0-0--0-1--1-1-1-1-----|
|-0--0-0-0-0--0-0-0-0------|-0--0-0--0-0--0-0-0-0-----|
|-2--2-2-2-2--2-2-2-2------|-2--2-2--2-2--2-2-2-2-----|
|-2--2-2-2-3--3-3-3-3------|-2--2-2--2-3--3-3-3-3-----|
|-0--0-0-0-----------------|-0--0-0--0----------------|
|
| Q.       H           S S   Q    S  S H           E
|--------------------------|--------------------------|
|--------------------------|--------------------------|
|--------------------------|--------------------------|
|----------------------7-5-|--------------------------|
|-9--------7---------------|-9----9s10-7--------------|
|--------------------------|--------------------------|


 Chorus 2
  &
  C                      B7
  Q   E. S  E  E       E  E    +E  E E. S E E. S S S
|-0---0--0--0--0----------2-|--(2)-2-2--2-2-2--2-2-2-|
|-1---1--1--1--1----------0-|--(0)-0-0--0-0-0--0-0-0-|
|-0---0--0--0--0----------2-|--(2)-2-2--2-2-2--2-2-2-|
|-2---2--2--2--2----------1-|--(1)-1-1--1-1-1--1-1-1-|
|-3---3--3--3--3----------2-|--(2)-2-2--2-2-2--2-2-2-|
|---------------------------|------------------------|
|
|                         ~~~~~~~~~
|              |--3--|
| Q   Q     E  S  S  S E  E    +W
|---------------------------|------------------------|
|---------------------------|------------------------|
|----12----12-11h12p11p9-11-|-(11)-------------------|
|---------------------------|------------------------|
|---------------------------|------------------------|
|---------------------------|------------------------|
|
| Gtr III
|                         ~~~~~~~~~
|              |--3--|
| Q   Q     E  S  S  S E  E    +W
|---------------------------|------------------------|
|----12----12-10h12p10p8-10-|-(10)-------------------|
|---------------------------|------------------------|
|---------------------------|------------------------|
|---------------------------|------------------------|
|---------------------------|------------------------|


  Em           Cadd9        C
   Q         E  Q   E     E E   +E  E E. S E E.    S S S
|--0---------0--0---0-------0-|-(0)-0-0--0-0-0-----0-0-0--|
|--0---------0--3---3-------1-|-(1)-1-1--1-1-1-----1-1-1--|
|--0---------0--0---0-------0-|-(0)-0-0--0-0-0-----0-0-0--|
|--2---------2--2---2-------2-|-(2)-2-2--2-2-2-----2-2-2--|
|--2---------2--3---3-------3-|-(3)-3-3--3-3-3-----3-3-3--|
|--0---------0----------------|---------------------------|
|
|                           ~~~~~~~~
|  E  E      E  Q   S  S  E E   +H.             E.     S
|-----------------------------|---------------------------|
|-10--------------------------|---------------------------|
|----12-----11-12--12h14-11-9-|-(9)-----------------------|
|-----------------------------|------------------------9--|
|-----------------------------|---------------------------|
|-----------------------------|---------------------------|
|
|                           ~~~~~~~~
|     |-3-|
|  E  S S S  E  Q   S  S  E E   +H.             E.     S
|-10--7h8p7-----7---7h10------|---------------------------|
|-----------10-----------10-8-|-(8)--------------------8--|
|-----------------------------|---------------------------|
|-----------------------------|---------------------------|
|-----------------------------|---------------------------|
|-----------------------------|---------------------------|


  Am                   B7
   Q  E. S  E E      E E   +W
|--0--0--0--0-0--------2-|-(2)-----------------------|
|--1--1--1--1-1--------0-|-(0)-----------------------|
|--2--2--2--2-2--------2-|-(2)-----------------------|
|--2--2--2--2-2--------1-|-(1)-----------------------|
|--0--0--0--0-0--------2-|-(2)-----------------------|
|------------------------|---------------------------|
|
|             |-3--|                   |----3----|
|  H        E S  S S E E   +H..        S    S    S
|------------------------|---------------------------|
|------------------------|---------------------------|
|------------------------|---------------------------|
|-10-------10-9h10p9p7-9-|-(9)---------9p===7p===5---|
|------------------------|---------------------------|
|------------------------|---------------------------|
|
|             |-3--|
|  H        E S  S S E E   +H..        T  T    T   T
|------------------------|---------------------------|
|-10-------10-8h10p8p7-8-|-(8)-----------------------|
|------------------------|------------11-12p==11p==9-|
|------------------------|---------------------------|
|------------------------|---------------------------|
|------------------------|---------------------------|


 Outro
  Em       C                   Em       C
  E. S S S E. E S S E.         E. S S S E. E S S E.     16x
|-0--0-0-0-0--0-0-0-0------||--0--0-0-0-0--0-0-0-0-------||
|-0--0-0-0-1--1-1-1-1------||o-0--0-0-0-1--1-1-1-1------o||
|-0--0-0-0-0--0-0-0-0------||--0--0-0-0-0--0-0-0-0-------||
|-2--2-2-2-2--2-2-2-2------||--2--2-2-2-2--2-2-2-2-------||
|-2--2-2-2-3--3-3-3-3------||o-2--2-2-2-3--3-3-3-3------o||
|-0--0-0-0-----------------||--0--0-0-0------------------||
|
| Q.       H           S S     Q.       H           S S 16x
|--------------------------||----------------------------||
|--------------------------||o--------------------------o||
|--------------------------||----------------------------||
|----------------------7-5-||-----------------------7-5--||
|-9--------7---------------||o-9--------7---------------o||
|--------------------------||----------------------------||
|
| Q    E   H           S S     Q    E   H           S S 16x
|------0-------------------||-------0--------------------||
|----------------------7---||o----------------------7---o||
|-7----------------------9-||--7----------------------9--||
|----------9---------------||-----------9----------------||
|--------------------------||o--------------------------o||
|--------------------------||----------------------------||


Duration Legend
---------------
W - whole; H - half; Q - quarter; E - 8th; S - 16th; T - 32nd; X - 64th; a - acciaccatura
+ - note tied to previous; . - note dotted; .. - note double dotted
Uncapitalized letters represent notes that are staccato (1/2 duration)
Irregular groupings are notated above the duration line
Duration letters will always appear directly above the note/fret number it represents the
duration for.  Duration letters with no fret number below them represent rests.  Multi-
bar rests are notated in the form Wxn, where n is the number of bars to rest for.  Low
melody durations appear below the staff

Tablature Legend
----------------
 h   - hammer-on
 p   - pull-off
 b   - bend
 pb  - pre-bend
 r   - bend release (if no number after the r, then release immediately)
 /\  - slide into or out of (from/to "nowhere")
 s   - legato slide
 S   - shift slide
  - natural harmonic
[n]  - artificial harmonic
n(n) - tapped harmonic
 ~   - vibrato
 tr  - trill
 T   - tap
 TP  - trem. picking
 PM  - palm muting
\n/  - tremolo bar dip; n = amount to dip
 \n  - tremolo bar down
 n/  - tremolo bar up
/n\  - tremolo bar inverted dip
 =   - hold bend; also acts as connecting device for hammers/pulls
 <>  - volume swell (louder/softer)
 x   - on rhythm slash represents muted slash
 o   - on rhythm slash represents single note slash

Misc Legend
-----------
 |  - bar
||  - double bar
||o - repeat start
o|| - repeat end
*|  - double bar (ending)
 :  - bar (freetime)
 $  - Segno
 &  - Coda
Tempo markers -  = BPM(8/16=s8/s16), where s8 = swing 8ths, s16 = swing

16ths
Suggest correction
comments
print report bad tab
4 comments total. Showing first comments.
+1 reply
extra_t 36 wrote on September 16 2007, 09:00 pm

some of this seems out...but still gooten ya

+3 reply
growl 70 wrote on July 13 2008, 07:26 am

B7 should be a Dbdim... (xx1212)

And I'm pretty sure it's just an Am instead of an Amadd9

+1 reply
SuperHyphy420 10 wrote on June 20 2009, 04:41 am

Instead of:
|--------------------------0-0--||
|--------------------------0-0-o||
|---------------0--------0-0-0--||
|-4h5p4---4-----2--------2-2-2--||
|-------7---5h7-2--------2-2-2-o||
|---------------0--2-3-2-0-0-0--||

Michael Plays it |--------------------------0-0--||
|--------------------------0-0-o||
|-----------------------0-0-0--||
|-4h5p4---4-------------2-2-2--||
|-------7---5s7-7--------2-2-2-o||
|-----------------2-3-2-0-0-0--||

guest
You may want to rate the tab now too:
select rating
Please do not post tabs as comments. Select "correction" instead!