Oops, an error
Loading. Please wait.

Era Tab

652 views 48 this week
no commentswrite comment
1 2 3 4 5
x 4
add to favorites
launch autoscroll
font size
0
reset
how to read this tab
guitar tuner
Autoscroll
slow
fast
+/-
esc
set tempo
stop
Help us to improve Ultimate-Guitar.com Take our survey!
×
Author
Difficulty
intermediate
About this tab version
Includes keyboard intro and guitar solo. Was this info helpful? Yes No
Opeth
"Era"

Standard tuning. Corrections and additions welcome!


[Intro]
  Piano and Electric Piano
e|------------12----------|8--7--5-----7--5--------|------------------------|------------------------|
B|---------10-------10----|---------5--------8-----|5-----3-----------3-----|1-----------1-----------|
G|------9-----12----10----|7-----5-----4--------7--|5-----4--5--4-----4-----|2-----------2-----------|
D|---10----------------10-|---------------------9--|---------7--5-----------|---------------------2--|
A|12----------------------|------------------------|------------------------|------------------------|
E|------------------------|------------------------|------------------------|------------------------|

e|------------12----------|8--7--5-----7--5--------|------------------------|------------------------|
B|---------10-------10----|---------5--------8-----|5-----3-----------3-----|1-----------1--------3--|
G|------9-----12----10----|7-----5-----4--------7--|5-----4--5--4-----4-----|2-----------2-----------|
D|---10----------------10-|---------------------9--|---------7--6-----------|------------------------|
A|12----------------------|------------------------|------------------------|------------------------|
E|------------------------|------------------------|------------------------|------------------------|

e|------------12----------|15-12-------------------|8-----7-8-7-5-3----7----|5-----------5-----------|
B|---------10-------------|------13-10-12----------|------------------------|------------------------|
G|9--9--------12----12----|---------------12-------|9-----7-9-7-5-4----7----|5-----------5--------7--|
D|------10-------14----14-|------------------12-14-|------------------------|------------------------|
A|12----------------------|------------------------|------------------------|------------------------|
E|------------------------|------------------------|------------------------|------------------------|

e|------------12----------|15-12-------------------|8-----7-8-7-5-3----7----|5-----------5-----------|
B|---------10-------------|------13-10-12----------|------------------------|------------------------|
G|9--9--------12----12----|---------------12-------|--------------4-5--7-9--|------------------------|
D|------10-------14----14-|------------------9--7--|6-----6---7-------------|7-----------7-----------|
A|12----------------------|------------------------|---7--------------------|---------------------7--|
E|------------------------|------------------------|------------------------|------------------------|

  Electric Piano
e|------------------------|------------------------|------------------------|------------------------|
B|------13----12----10----|6-----5-----3--------3--|5-----3-----------3-----|1-----------1-----------|
G|------14----12----10-9--|7-----5-----4--------4--|5-----4--5--4-----4-----|2-----------2-----------|
D|---------------------10-|------------------------|---------7--5-----------|---------------------2--|
A|12----------------------|------------------------|------------------------|------------------------|
E|------------------------|------------------------|------------------------|------------------------|
 |Piano
e|------------12----------|8--7--5-----7--5--------|------------------------|------------------------|
B|---------10-------10----|---------5--------8-----|5-----3-----------3-----|1-----------1-----------|
G|------9-----12----10----|7-----5-----4--------7--|5-----4--5--4-----4-----|2-----------2-----------|
D|---10----------------10-|---------------------9--|---------7--5-----------|---------------------2--|
A|12----------------------|------------------------|------------------------|------------------------|
E|------------------------|------------------------|------------------------|------------------------|


e|------------------------|------------------------|------------------------|------------------------|
B|------13----12----10----|6-----5-----3--------3--|5-----3-5-3-------3-----|1-----------1--------3--|
G|------14----12----10-9--|7-----5-----4--------4--|5-----4-5-4-5--6--4-----|2-----------2-----------|
D|---------------------10-|------------------------|------------7--4--------|------------------------|
A|12----------------------|------------------------|------------------------|------------------------|
E|------------------------|------------------------|------------------------|------------------------|
 |
e|------------12----------|8--7--5-----7--5--------|------------------------|------------------------|
B|---------10-------10----|---------5--------8-----|5-----3------------3----|1-----------1--------3--|
G|------9-----12----10----|7-----5-----4--------7--|5-----4-----5--4---4----|2-----------2-----------|
D|---10----------------10-|---------------------9--|------------7--5--------|------------------------|
A|12----------------------|------------------------|------------------------|------------------------|
E|------------------------|------------------------|------------------------|------------------------|

  Piano and Electric Piano resume unison
e|------------12----------|15-12-------------------|8-----7-8-7-5-3----7----|5-----------5-----------|
B|---------10-------------|------13-10-12----------|------------------------|------------------------|
G|9--9--------12----12----|---------------12-------|9-----7-9-7-5-4----7----|5-----------5--------7--|
D|------10-------14----14-|------------------12-14-|------------------------|------------------------|
A|12----------------------|------------------------|------------------------|------------------------|
E|------------------------|------------------------|------------------------|------------------------|

e|------------12----------|15-12-------------------|8-----7-8-7-5-3----7----|5-----------5-----------|
B|---------10-------------|------13-10-12----------|------------------------|------------------------|
G|9--9--------12----12----|---------------12-------|--------------4-5--7-9--|------------------------|
D|------10-------14----14-|------------------9--7--|6-----6---7-------------|7-----------7-----------|
A|12----------------------|------------------------|---7--------------------|------------------------|
E|------------------------|------------------------|------------------------|------------------------|


{Transition]
  G1,2               Keyboards and guitar crescendo
e|----------------|----------------|----------------|----------------|
B|----------------|----------------|----------------|----------------|
G|----------------|----------------|----------------|----------------|
D|7---------------|(7)-------------|(7)-------------|(7)-------------|
A|0---------------|(0)-------------|(0)-------------|(0)-------------|
E|----------------|----------------|----------------|----------------|

Listen for feel/palm muting
e|--------------------------------|--------------------------------| 
B|--------------------------------|--------------------------------|
G|--------------------------------|--------------------------------|
D|7-----7-----7-----7-----7-7-----|7-----7-----7-----7-----7-7-----| X2
A|0-----0-----0-----0-----0-0-----|0-----0-----0-----0-----0-0-----|
E|--------------------------------|--------------------------------|

e|--------------------------------|--------------------------------| 
B|--------------------------------|--------------------------------|
G|--------------------------------|--------------------------------|
D|7---x-7---x-7---x-7-----7-7-----|7---x-7---x-7---x-7-----7-7-----| X3
A|0---x-0---x-0---x-0-----0-0-----|0---x-0---x-0---x-0-----0-0-----|
E|--------------------------------|--------------------------------|

e|--------------------------------|--------------------------------|
B|--------------------------------|--------------------------------|
G|--------------------------------|--------------------------------|
D|7---x-7---x-7---x-7-----7-7-----|7---x-7---x-7-7---7-7---7-7-----|
A|0---x-0---x-0---x-0-----0-0-----|0---x-0---x-0-0---0-0---0-0-----|
E|--------------------------------|--------------------------------|

e|--------------------------------|--------------------------------|
B|--------------------------------|--------------------------------|
G|--------------------------------|--------------------------------|
D|7-----7-----7-----7-----7-7-----|7-----7-----7-----7-----7-7-----|
A|0-----0-----0-----0-----0-0-----|0-----0-----0-----0-----0-0-----|
E|--------------------------------|--------------------------------|

e|--------------------------------|--------------------------------| 
B|--------------------------------|--------------------------------|
G|--------------------------------|--------------------------------|
D|7---x-7---x-7---x-7-----7-7-----|7---x-7-----7-7---7-7-----------|
A|0---x-0---x-0---x-0-----0-0-----|0---x-0-----0-0---0-0-----------|
E|--------------------------------|--------------------------------|

e|--------------------------------|--------------------------------|
B|--------------------------------|--------------------------------|
G|--------------------------------|--------------------------------|
D|7-----7-----7-----7-----7-7-----|7-----7-----7-----7-----7-7-----|
A|0-----0-----0-----0-----0-0-----|0-----0-----0-----0-----0-0-----|
E|--------------------------------|--------------------------------|

e|--------------------------------|--------------------------------|
B|--------------------------------|--------------------------------|
G|--------------------------------|--------------------------------|
D|7-----7-----7-----7-----7-7-----|7-----7-----7-----7-----7-7-----|
A|0-----0-----0-----0-----0-0-----|0-----0-----0-----0-----0-0-----|
E|--------------------------------|--------------------------------|

e|--------------------------------|--------------------------------|
B|--------------------------------|--------------------------------|
G|7-----7-----7-----7-----7-7-----|5-----5-----5-----5-----5-5-----|
D|7-----7-----7-----7-----7-7-----|7-----7-----7-----7-----7-7-----|
A|0-----0-----0-----0-----0-0-----|0-----0-----0-----0-----0-0-----|
E|--------------------------------|--------------------------------|
              REST                               REST     
e|--------------------------------|--------------------------------|
B|--------------------------------|--------------------------------|
G|--------------------------------|--------------------------------|
D|--------------------------------|--------------------------------|
A|--------------------------------|--------------------------------|
E|--------------------------------|--------------------------------|


[Verse]
  G1,2
e|--------------------------------|--------------------------------|
B|--------------------------------|--------------------------------|
G|--------------------------------|--------------------------------|
D|7-----7-----7-----7-----7-7-----|7-----7-----7-----7-----7-7-----|
A|0-----0-----0-----0-----0-0-----|0-----0-----0-----0-----0-0-----|
E|--------------------------------|--------------------------------|
                                                                    X8
e|--------------------------------|--------------------------------|
B|7-----7-----7-----7-----7-7-----|6-----6-----6-6---6-6---6-6-----|
G|7-----7-----7-----7-----7-7-----|7-----7-----7-7---7-7---7-7-----|
D|7-----7-----7-----7-----7-7-----|7-----7-----7-7---7-7---7-7-----|
A|5-----5-----5-----5-----5-5-----|5-----5-----5-5---5-5---5-5-----|
E|--------------------------------|--------------------------------|


[Break]

e|------------------------|------------------8--5--|7-----7-----5-----5-----|5-----------------------|
B|------------------------|------5--------5-----6--|---------8-----------6--|5-----5-----------------|
G|------------------------|------------------9-----|9-----7--9--7-----5--7--|---------4--5-----------|
D|------------------------|------7-----------------|---7-----------7--------|7-----------7-----------|
A|------------------------|------------------------|------------------------|---7--------------------|
E|------------------------|------------------------|------------------------|------------------------|
 |
e|------------------------|------------------------|------------------------|------------------------|
B|------------------------|------------------------|------------------------|------------------------|
G|------------------------|------------------------|------------------------|------------------------|
D|------------------7-----|9-----------------------|------------------------|------------7-----------|
A|7-----9-----10----5-----|7-----7-----------------|------------------------|------------0-----------|
E|5-----7-----8-----------|------5-----------------|------------------------|------------------------|

[Drum Break]

Keyboard and Guitars crescendo into...

[Verse]
  G1,2
e|--------------------------------|--------------------------------|
B|--------------------------------|--------------------------------|
G|--------------------------------|--------------------------------|
D|7-----7-----7-----7-----7-7-----|7-----7-----7-----7-----7-7-----|
A|0-----0-----0-----0-----0-0-----|0-----0-----0-----0-----0-0-----|
E|--------------------------------|--------------------------------|
                                                                    X8
e|--------------------------------|--------------------------------|
B|7-----7-----7-----7-----7-7-----|6-----6-----6-6---6-6---6-6-----|
G|7-----7-----7-----7-----7-7-----|7-----7-----7-7---7-7---7-7-----|
D|7-----7-----7-----7-----7-7-----|7-----7-----7-7---7-7---7-7-----|
A|5-----5-----5-----5-----5-5-----|5-----5-----5-5---5-5---5-5-----|
E|--------------------------------|--------------------------------|


[Chorus]
  G1,2
e|------------------------|------------------------|------------------------|------------------------|
B|------------------5-----|------------------------|7-----------------------|------------------------|
G|4--------5--------5-----|------------------------|7--------5-----------4--|------------------------|
D|5--------7--------7-----|------------------------|7--------7-----------5--|------------------------| X4
A|5--------7--------7-----|------------------------|5--------7-----------5--|------------------------|
E|3--------5--------------|------------------------|---------5-----------3--|------------------------|

 
[Bridge]
  G1,2
e|8-----------------------|8-----------8-----------|7-----------------------|7-----------7-----------|
B|10----------------------|----10----------10------|9-----------------------|----9-----------9-------|
G|10----------------------|---------10----------10-|9-----------------------|--------9-----------9---|
D|10----------------------|------------------------|9-----------------------|------------------------|
A|8-----------------------|------------------------|7-----------------------|------------------------|
E|------------------------|------------------------|------------------------|------------------------|

e|------------------------|------------------------|8-----------------------|8-----------8-----------|
B|------------------------|------------------------|10----------------------|----10----------10------|
G|------------------------|---------9--------------|10----------------------|---------10----------10-|
e|10-------7--------------|10-------9--------------|10----------------------|------------------------|
B|10-------7--------------|10-------7--------------|8-----------------------|------------------------|
G|8--------5--------------|8-----------------------|------------------------|------------------------|

e|7-----------------------|7-----------7-----------|------------------------|------------------------|
B|9-----------------------|----9-----------9-------|------------------------|------------------------|
G|9-----------------------|--------9-----------9---|------------------------|---------9--------------|
D|9-----------------------|------------------------|10-------7--------------|10-------9--------------|
A|7-----------------------|------------------------|10-------7--------------|10-------7--------------|
E|------------------------|------------------------|8--------5--------------|8-----------------------|

e|------------------------|------------------------|------------------------|------------------------|
B|------------------------|------------------------|------------------------|------------------------|
G|------------------------|---------9--------------|------------------------|---------9--------------|
e|10-------7--------------|10-------9--------------|10-------7--------------|10-------9--------------|
B|10-------7--------------|10-------7--------------|10-------7--------------|10-------7--------------|
G|8--------5--------------|8-----------------------|8--------5--------------|8-----------------------|
                                                                                         G1 (Lead w/ delay)
e|------------------------|------------------------|------------------------|------------------------|
B|------------------------|------------------------|------------------------|------------------------|
G|------------------------|---------7--------------|------------------------|---------------7b9-r7p5-|
e|10-------7--------------|10-------7--------------|------------------------|------------------------|
B|10-------7--------------|10-------5--------------|------------------------|------------------------|
G|8--------5--------------|8-----------------------|------------------------|------------------------|


[Solo] 
  G1 (while G2 repeats the chorus riff)

e|------------------------------------------------------------------------------------------------|
B|----------------------------12-------------------------12-----------------10-12-12b13~~~~~~~~~~~|
G|7b9-7b9~~~-------------12-14--12-12-12b14r12~-------------14~~---------/12----------------------|
D|------------------------------------------------------------------------------------------------|
A|------------------------------------------------------------------------------------------------|
E|------------------------------------------------------------------------------------------------|

e|------------------------------------------------------------------------------------------------|
B|13-10-12-10-12----------------------------------------------------------------------------------|
G|--------------12-14--12-14-12------14-12-----------14-12----------------------------------------|
D|------------------------------14-12-----14-13-12-10-----14-13-12-10-12-10-9~~~~-----------------|
A|------------------------------------------------------------------------------------------------|
E|------------------------------------------------------------------------------------------------|

e|------------------------------------------------------------------------------------------------|
B|----------------------------------------------17- 20- 20- 20b22~~~~(22)~~~~(22)r20~~~~~~~~~~~~~~|
G|----14-16-16b17r16p14--17b19r17-16--19b21r19----------------------------------------------------|
D|/17---------------------------------------------------------------------------------------------|
A|------------------------------------------------------------------------------------------------|
E|------------------------------------------------------------------------------------------------|

e|-------17----------------------------------------17-19b20-r---19-17----17-19-17---22-22b24--r20~|
B|20~--20-------------------------------------------------------------20--------------------------|
G|---------19b20-17-19b20r19-17-19|17b.5-17b.5r---------------------------------------------------|
D|---------------------------------------------19~------------------------------------------------|
A|------------------------------------------------------------------------------------------------|
E|------------------------------------------------------------------------------------------------|


[Chorus]
  G1,2
e|------------------------|------------------------|------------------------|------------------------|
B|------------------5-----|------------------------|7-----------------------|------------------------|
G|4--------5--------5-----|------------------------|7--------5-----------4--|------------------------|
D|5--------7--------7-----|------------------------|7--------7-----------5--|------------------------| X4
A|5--------7--------7-----|------------------------|5--------7-----------5--|------------------------|
E|3--------5--------------|------------------------|---------5-----------3--|------------------------|

e|------------------------|------------------------|------------------------|------------------------|
B|7-----------------------|------------------------|7-----------------------|------------------------|
G|7--------5-----------4--|------------------------|7--------5-----------4--|------------------------|
D|7--------7-----------5--|------------------------|7--------7-----------5--|------------------------|
A|5--------7-----------5--|------------------------|5--------7-----------5--|------------------------|
E|---------5-----------3--|------------------------|---------5-----------3--|------------------------|



***********************************
| /   Slide up
| \   Slide down
| h   Hummer-on
| p   Pull-off
| ~   Vibrato
| +   Harmonic
| x   Dead note
| b   Bend
| b.5 Bend quarter tone
| r   Release 
***********************************
Suggest correction
comments
print report bad tab
guest
You may want to rate the tab now too:
select rating
Wanna post a correction for this tab? Suggest correction