Oops, an error
Loading. Please wait.

Ghost Of Perdition Tab

version 2
version 2
by Opeth
58,189 views 135 this week
8 commentsread comments
1 2 3 4 5
x 22
add to favorites
×
Save as Personal and add changes to this tab that will be seen only by you. Learn more ›
launch autoscroll
font size
0
reset
how to read this tab
guitar tuner
backing track
0:00
0:00
Autoscroll
slow
fast
+/-
esc
set tempo
stop
Author
Difficulty
Tuning
advanced
D A D F# A D
GHOST OF PERDITION
                              As recorded by Opeth
                      (From the 2005 Album GHOST REVERIES)


Words and Music by Mikael Akerfeldt
Arranged by Opeth
Transcribed by Erik Dietrich

Gtr I (D A D F A D) - 'Clean'
Gtr II (D A D F A D) - 'L'
Gtr III (D A D F A D) - 'R'
Gtr IV (D A D F A D) - 'Acoustic 1'
Gtr V (D A D F A D) - 'Acoustic high'
Gtr VI (D A D F A D) - 'Dist Center'

 0:00
  Q=190
  D5                A/D               F/D                 C#       C#m
 6/4
  Gtr I
  H.      H.        H.      H.         H.       H.         H.       H.
D|-----------------|-----------------|-------------------|-----------------|
A|-5-------5-------|-4-------4-------|-12-------12-------|-----------------|
F|-4-------4-------|-4-------4-------|-12-------12-------|-12-------11-----|
D|-0-------0-------|-0-------0-------|-12-------12-------|-11-------11-----|
A|-0---------------|-----------------|-------------------|-----------------|
D|-0---------------|-----------------|-------------------|-----------------|

    Dm                      D5
     Gtrs II, III
                             PM------|
      E   E   E   E   E   E  Q  Q  E E
D||---0---0---0---0---0---0------------|
A||o--5---5---5---5---5---5------------|
F||---4---4---4---4---4---4------------|
D||---0---0---0---0---0---0--0--0--0-0-|
A||o-(0)-(0)-(0)-(0)-(0)-(0)-0--0--0-0-|
D||--------------------------0--0--0-0-|

  Aadd11/D    D5          Ab5   G5     F5 D5 N.C.
               PM------|
                                              |-3-|
   E E E E E E Q  Q  E E    Q  E E +Q   Q  Q  E E E
D|-0-0-0-0-0-0-----------|---------------------------|
A|-4-4-4-4-4-4-----------|---------------------------|
F|-4-4-4-4-4-4-----------|---------------------------|
D|-x-x-x-x-x-x-0--0--0-0-|---------------------------|
A|-4-4-4-4-4-4-0--0--0-0-|-/6--6-5-(5)--3--0---------|
D|-------------0--0--0-0-|-/6--6-5-(5)--3--0--3h4h7--|

    N.C.                               B5          Bb5       A5
                                          PM   PM     PM   PM    PM
     Q   Q  E E Q  E E E E   E E Q  Q  Q  E Q  E   Q  E Q  E E E E Q  E
D|------------------------|---------------------|-----------------------|
A|------------------------|---------------------|-----------------------|
F|------------------------|---------------------|-----------------------|
D|----------------3h4p3p0-|---0-------4--x-4--x-|-3--x-3--x-2-2-x-2--2--|
A|--5---5--3s5-5----------|-4---0--3--2--x-2--x-|-1--x-1--x-0-0-x-0--0--|
D|-(0)--0-----------------|--------------x----x-|----x----x-----x-------|

    N.C.                               D5
                 PM----|                  PM   PM
    Q  E E S S E E E E E E E   H.      Q  E Q  E
D|--------------------------|-------------------|
A|--------------------------|-------------------|
F|--------------------------|-------------------|
D|--------------------------|-------------------|
A|--------3h4p3---3---0-0---|---------0--0-0--0-|
D|-5--5-5-------5---4-----1-|-0-------0--0-0--0-|

   Dm                      D5
                           PM------|
    E   E   E   E   E   E  Q  Q  E E
D|--0---0---0---0---0---0------------|
A|--5---5---5---5---5---5------------|
F|--4---4---4---4---4---4------------|
D|--0---0---0---0---0---0--0--0--0-0-|
A|-(0)-(0)-(0)-(0)-(0)-(0)-0--0--0-0-|
D|-------------------------0--0--0-0-|

  Aadd11/D    D5          Ab5   G5     F5 D5 N.C.
               PM------|
                                              |-3-|
   E E E E E E Q  Q  E E    Q  E E +Q   Q  Q  E E E
D|-0-0-0-0-0-0-----------|--------------------------|
A|-4-4-4-4-4-4-----------|--------------------------|
F|-4-4-4-4-4-4-----------|--------------------------|
D|-x-x-x-x-x-x-0--0--0-0-|--------------------------|
A|-4-4-4-4-4-4-0--0--0-0-|-/6--6-5-(5)--3--0--------|
D|-------------0--0--0-0-|-/6--6-5-(5)--3--0--3h4h7-|

    N.C.                               B5          Bb5       A5
                                          PM   PM     PM   PM    PM
     Q   Q  E E Q  E E E E   E E Q  Q  Q  E Q  E   Q  E Q  E E E E Q  E
D|------------------------|---------------------|-----------------------|
A|------------------------|---------------------|-----------------------|
F|------------------------|---------------------|-----------------------|
D|----------------3h4p3p0-|---0-------4--x-4--x-|-3--x-3--x-2-2-x-2--2--|
A|--5---5--3s5-5----------|-4---0--3--2--x-2--x-|-1--x-1--x-0-0-x-0--0--|
D|-(0)--0-----------------|--------------x----x-|----x----x-----x-------|

    1.
    G5            A5F5   Eb5 D5
                                        PM   PM
     Q  E E E E E E Q  E E   H.      Q  E Q  E
D|------------------------|--------------------||
A|------------------------|-------------------o||
F|------------------------|--------------------||
D|------------------------|--------------------||
A|-/5--5-5-5-5-5h7-3--3-1-|-0-------0--0-0--0-o||
D|-/5--5-5-5-5-5h7-3--3-1-|-0-------0--0-0--0--||

    2.
    G5           A5N.C.     D5
                                       PM
     Q  E Q  E E E Q  E E   H.      Q  E Q.
D|-----------------------|-------------------|
A|-----------------------|-------------------|
F|-----------------------|-------------------|
D|-----------------------|-------------------|
A|-/5--5-5--5-5h7--------|-0-------0--0-0----|
D|-/5--5-5--5-5h7-3--3-1-|-0-------0--0-0----|

 1:07
   N.C.
   PM---------|   PM--------------------|   PM----|
   E E E  q   E E E E E q      E E E q  E E E E E q   6x Q  E Q  E E Q  Q  E
D|-------------------------||-------------------------||----------------------|
A|-------------------------||o-----------------------o||----------------------|
F|-------------------------||-------------------------||----------------------|
D|-------------------------||-------------------------||----------------------|
A|-------(6)---------------||o-----------------------o||----5------5----5--5--|
D|-0-0-0--0---0---0-0-0-0--||--0-0-0-0--0---0-0-0-0---||-0----0--0---0--------|

   1:21
    D5 N.C.
                             |-3-|
   Q  E E E E E E E E E E   E E E E E E E  Q  E Q.
D|------------------------|--------------------------|
A|------------------------|--------------------------|
F|------------------------|--------------------------|
D|--------3-4-4-3-1h3-0h1-|-3h4p3-1-3-0h1-/7--7------|
A|-0--4-5-----------------|--------------------------|
D|-0----------------------|---------------------0----|

    Fm                   Em        Eb5
   Q  E Q  E Q  Q  Q    Q  E Q  E Q  E Q.
D|--------------------|---------------------|
A|--------------------|---------------------|
F|-3--3-3--3-3--3--3--|-2--2-2--2-----------|
D|-3--3-3--3-3--3--3--|-2--2-2--2------1----|
A|-3--3-3--3-3--3--3--|-2--2-2--2-1--1-1----|
D|-3--3-3--3-3--3--3--|-2--2-2--2-1--1------|

    D5 N.C.
                             |-3-|
   Q  E E E E E E E E E E   E E E E E E E  Q  E Q.
D|------------------------|--------------------------|
A|------------------------|--------------------------|
F|------------------------|--------------------------|
D|--------3-4-4-3-1h3-0h1-|-3h4p3-1-3-0h1-/7--7------|
A|-0--4-5-----------------|--------------------------|
D|-0----------------------|---------------------0----|

   Fm                   Em        Eb5        D5
   Q  E Q  E Q  Q  Q    Q  E Q  E Q  Q  Q    E E E E E E E E E E E E
D|--------------------|--------------------|--------------------------|
A|--------------------|--------------------|--------------------------|
F|-3--3-3--3-3--3--3--|-2--2-2--2----------|-4-4---4---4---4-4-4-4----|
D|-3--3-3--3-3--3--3--|-2--2-2--2-1--1--1--|-0-0---0---0---0-0-0-0----|
A|-3--3-3--3-3--3--3--|-2--2-2--2-1--1--1--|-0-0---0---0---0-0-0-0----|
D|-3--3-3--3-3--3--3--|-2--2-2--2-1--1--1--|-0-0---0---0---0-0-0-0----|

 1:37
   N.C.
   PM-------|   PM------------------|   PM--------------------|   PM----|
   E E E q  E E E E E q    E E E q  E E E E E q    E E E  q   E E E E E q
D|-----------------------|-----------------------|--------------------------|
A|-----------------------|-----------------------|--------------------------|
F|-----------------------|-----------------------|--------------------------|
D|-----------------------|-----------------------|--------------------------|
A|-----------------------|-----------------------|-------(6)----------------|
D|-0-0-0-0--0---0-0-0-0--|-0-0-0-0--0---0-0-0-0--|-0-0-0--0---0---0-0-0-0---|

                                                       D5
   PM-------|   PM--------------------|   PM----|
   E E E q  E E E E E q      E E E q  E E E E E q   3x q.   q.   q.   q.
D|-----------------------||-------------------------||----------------------|
A|-----------------------||o-----------------------o||----------------------|
F|-----------------------||-------------------------||----------------------|
D|-----------------------||-------------------------||-0----0----0----0-----|
A|-----------------------||o-----------------------o||-0----0----0----0-----|
D|-0-0-0-0--0---0-0-0-0--||--0-0-0-0--0---0-0-0-0---||-0----0----0----0-----|

     1:51
     D5 N.C.
                              |-3-|
     Q  E E E E E E E E E E   E E E E E E E  Q  E Q   E
D||-------------------------|----------------------------|
A||o------------------------|----------------------------|
F||-------------------------|----------------------------|
D||---------3-4-4-3-1h3-0h1-|-3h4p3-1-3-0h1-/7--7--------|
A||o-0--4-5-----------------|----------------------------|
D||--0----------------------|---------------------0--(0)-|

   Fm                   Em        Eb5
   Q  E Q  E Q  Q  Q    Q  E Q  E Q  Q  Q
D|--------------------|---------------------||
A|--------------------|--------------------o||
F|-3--3-3--3-3--3--3--|-2--2-2--2-----------||
D|-3--3-3--3-3--3--3--|-2--2-2--2-1--1--1---||
A|-3--3-3--3-3--3--3--|-2--2-2--2-1--1--1--o||
D|-3--3-3--3-3--3--3--|-2--2-2--2-1--1--1---||

   G5            A5F5   Eb5 D5
    Q  E E E E E E Q  E E   W.
D|------------------------|-------|
A|------------------------|-------|
F|------------------------|-------|
D|------------------------|-------|
A|-/5--5-5-5-5-5h7-3--3-1-|-0-----|
D|-/5--5-5-5-5-5h7-3--3-1-|-0-----|

   2:34
   Fmaj7/D           A/F#             Dmadd2
   Gtr IV
     W.               W.              H    Q  Q  Q  Q    H    W
D|-^14-------------|----------------|------------------|-2----0----|
A|-^12-------------|-^4-------------|---------------0--|-----------|
F|-^12-------------|-^4-------------|------------0-----|-----------|
D|-^12-------------|-^4-------------|---------2--------|-----------|
A|-----------------|----------------|------2-----------|-----------|
D|-----------------|----------------|-0----------------|-----------|

   Bbmadd9/F         Bmadd9/F#         Cmadd9/G
     W.                W.                W.               +W.
D|-^10-------------|-^11-------------|-^12-------------|-(12)----|
A|-^-8-------------|-^-9-------------|-^10-------------|-(10)----|
F|-^-8-------------|-^-9-------------|-^10-------------|-(10)----|
D|-^-8-------------|-^-9-------------|-^10-------------|-(10)----|
A|-^-8-------------|-^-9-------------|-^10-------------|-(10)----|
D|-----------------|-----------------|-----------------|---------|

    2:49
     Dm            Dm/E
    12/8
     Gtrs IV, V
     E E E E E E E E E E E E
D||--------------------------|
A||o-------------------------|
F||----------0---------0-----|
D||------0-----0-----0---0---|
A||o---0---0-----5s7-------7-|
D||--0-----------------------|

   Dm/F        Dm/G           Dm/E         Dm
   E E E E E E  E E E E E E   E E E E E E  E E E E E E
D|--------------------------|---------------------------|
A|-------0------------0-----|-------0------------0------|
F|-----0---0--------0---0---|-----0---0--------0---0----|
D|---0-------0----0-------0-|---0------------0-------0--|
A|-8-----------10-----------|-7---------8\-5------------|
D|--------------------------|---------------------------|

   Dm
   Q   E   E   E   E  Q   E   E   E   E
D|---------------------------------------|
A|---------------------------------------|
F|-0--(0)--0--(0)-(0)-0--(0)--0--(0)-(0)-|
D|-0---0---0---0---0--0---0---0---0---0--|
A|-0--(0)-(0)-(0)-(0)-0---0--(0)-(0)-(0)-|
D|-0-------0----------0------------------|

   Dm/C#       Dm/A          Dm/G                N.C.
   E E E E E E E E E E E E   E E E E E E E E E E E E
D|-------------------------|--------------------------|
A|-------0-----------0-----|-------0-----------0------|
F|-----0---0-------0---0---|-----0---0-------0--------|
D|---0-------0---0-------0-|---0-------0---0----------|
A|-4-----------0-----------|--------------------------|
D|-------------------------|-5-----------5-------2h3--|

   1.,2.,3.
            Dm   Dm/C   Dm6           Dmadd9/B
   Q  Q  Q  Q  E Q  E   Q  E E E E Q  E E E E  4x
D|----------0---------|-3----3-----3----2-2----||
A|----------0---------|-0----0-0---0--0-0-0---o||
F|----------0--x-0----|-0----0-0-0-0--0-0-0----||
D|----------0--x-0--x-|-0--0-0-0-0-0--0-0-0-0--||
A|-------0--5--x-3--x-|-2--2-----2-2--2-----2-o||
D|-2--0-------------x-|-0----------------------||

 Guitar Solo 1
  4.
           Dmadd9           Dm     Dm/C    Dmadd9Dm/C      N.C.
 Gtr VI
                                                   >
  H.         E      +E   +H          +H.           +H.
D|-----------17b19==(17)-(17)------|-(17)----------(17)----------|
A|---------------------------------|-----------------------------|
F|---------------------------------|-----------------------------|
D|---------------------------------|-----------------------------|
A|---------------------------------|-----------------------------|
D|---------------------------------|-----------------------------|
 |
 | Gtrs IV, V
 | Q   Q  Q   E       E    E  q  E     Q   E E E E   Q   E E E E
D|------------2-------2------------|---0---0-2-2-2---0-----------|
A|------------0-------0----x--0----|---0---0-0-0-0---0---x-------|
F|------------0-------0----x--0--x-|---0---0-0-0-0---0---x-------|
D|------------0-------0----x--0--x-|---0---0-0-0-0---0---x-------|
A|--------0----------------------x-|---3---3-3-3-3---3---x-------|
D|-2---0---------------------------|-----------------------x-2h3-|

   N.C.         Dm
    +H.          H           +E   E
D|-(17)r--------17b19-------(17)-15-|
A|----------------------------------|
F|----------------------------------|
D|----------------------------------|
A|----------------------------------|
D|----------------------------------|
 |
 |   Q    Q  Q   E    E E q       E
D|---------------3----3-------------|
A|---------------0----0-x-0---------|
F|---------------0----0-x-0-------x-|
D|---------------0----0-x-0-------x-|
A|-----------0--------------------x-|
D|---2----0-------------------------|

                                      N.C.
    Q   +S   +S      S  S  q    q   E  +Q.
D|-14--(14)-(14)b15-14-------------------------|
A|---------------------15----------------------|
F|------------------------14---12--11-(11)~~~~-|
D|---------------------------------------------|
A|---------------------------------------------|
D|---------------------------------------------|
 |
 |  Q    E           E     E E  Q   E   E  E E
D|-------0-----------0-----0-0--0--------------|
A|--0----0-----------0-----0-0--0---x----------|
F|--0----0-----------0-----0-0--0---x----------|
D|--0----0-----------0-----0-0--0---x----------|
A|--3----3-----------3-----3-3--3---x----------|
D|--------------------------------------x--2h3-|

               Dm    Dmadd9    Dm/C   Dmadd9Dm/C N.C.
    +H.        E Q   +E  E E   +W.
D|---------------------------|-------------------------|
A|---------------------------|-------------------------|
F|-(11)~~~~----7h9---(9)-----|-------------------------|
D|-----------------------5h7-|-(7)~~~------------------|
A|---------------------------|-------------------------|
D|---------------------------|-------------------------|
 |
 |   Q   Q  Q  E E E  q    E    Q   E E E E Q  E E E E
D|-------------0-0----2------|--0---0-2-2-2-0----------|
A|-------------0-0-x--0------|--0---0-0-0-0-0--x-------|
F|-------------0-0-x--0----x-|--0---0-0-0-0-0--x-------|
D|-------------0-0-x--0----x-|--0---0-0-0-0-0--x-------|
A|----------0--------------x-|--3---3-3-3-3-3--x-------|
D|---2---0-------------------|-------------------x-2h3-|

              Dmadd9   Dm            Dm/C   Dmadd9Dm/C   Dmadd9/C
   +H.         H         +S  S S S    H.          +H       +Q
D|---------------------------------|-----------------------------|
A|---------------------------------|-----------------------------|
F|---------------------------------|-----------------------------|
D|-(7)--------/5---------(5)-7p5p3-|-----------------------------|
A|---------------------------------|-/7-----------(7)------(7)S==|
D|---------------------------------|-----------------------------|
 |
 |  Q   Q  Q   E  E  E E  E    E      Q   E E E E  Q   E E  E  E
D|-------------0h=2--x-0-----------|--0---x-2-2-2--0---x-2--2--2-|
A|-------------0-(0)-0-0--x----x---|--0---0-0-0-0--0---0-0--0--0-|
F|-------------0-(0)-0-0--x----x---|--0---0-0-0-0--0---0-0--0--0-|
D|-------------0-(0)-0-0--x----x---|--0---0-0-0-0--0---0-0--0--0-|
A|---------0-----------------------|--3---3-3-3-3--3---3-3--3--3-|
D|--2---0--------------------------|-----------------------------|

   Dm   D5                  D5
                              >
    W.                       +W.
D|------------------------|-----------------------------|
A|------------------------|-----------------------------|
F|------------------------|-----------------------------|
D|------------------------|-----------------------------|
A|-17~~~~~~~~~~~~~~~~~~~~~|~(17)------------------------|
D|------------------------|-----------------------------|
 |
 |  E E E E E E Q  E E Q      S  S S S S S +Q.   +H.
D|--------0-x-x------0----|--------------0-(0)---(0)----|
A|--0-0-0-0-0-0-0--0-0-0--|------------0----------------|
F|--0-0-4-4-4-4-4--4-4-4--|----------4------------------|
D|--0-0-0-0-0-0-0--0-0-0--|--------0--------------------|
A|--3s5-5-5-5-5-5--5-5-5--|------0----------------------|
D|------------------------|---0-------------------------|

   4:09
   D5
  6/4
   Gtr VI
    +W.
D|--------------------------|
A|--------------------------|
F|--------------------------|
D|--------------------------|
A|-(17)~~~~~~~~~~~~~~~~~~~~~|
D|--------------------------|
 |
 | Gtrs II, III
 |   PM--------------------|
 |   Q   Q  E E +E  Q  Q  E
D|--------------------------|
A|--------------------------|
F|--------------------------|
D|--------------------------|
A|---0---0--0-0-(0)-0--0--0-|
D|---0---0--0-0-(0)-0--0--0-|
 
       +H      Q    H.          6x W
D||----------------------------||----------------------|
A||o--------------------------o||----------------------|
F||----------------------------||----------------------|
D||----------------------------||----------------------|
A||o-(17)~~~~~~~~-------------o||----------------------|
D||----------------------------||----------------------|
 |
 |----------------------------------------|
 |     Q   Q  E E +E  Q  Q  E  6x Q  Q  E E q.   q.
D||----------------------------||----------------------|
A||o--------------------------o||----------------------|
F||----------------------------||----------------------|
D||----7---7--7-7-(7)-7--7--7--||-7--7--7-7------------|
A||o---0---0--0-0-(0)-0--0--0-o||-0--0--0-0-0----0-----|
D||----0---0--0-0-(0)-0--0--0--||-0--0--0-0-0----0-----|

   4:24
    D5
     Gtrs II, III
                         PM-----|
     q.   q.   q.   E. S E   Q  Q  E E E E E E Q
D||------------------------|-----------------------|
A||o-----------------------|-----------------5-----|
F||------------------------|-----------------------|
D||------------------------|-----------------------|
A||o-0----0----0----0----0-|-0--0----5-----5---5\--|
D||--0----0----0----0----0-|-0--0--0---0-0---------|

                          1.,2.,3.                 4.
   D5                      A5   G5        F5       A5   G5   G5   F5
                       PM     PM   PM   PM            PM   PM   PM   PM
   q.   q.   q.   E. S E   Q  E Q  E Q  E Q.       Q  E Q  E Q  E Q  E
D|-----------------------|----------------------||----------------------|
A|-----------------------|---------------------o||----------------------|
F|-----------------------|----------------------||----------------------|
D|-----------------------|----------------------||----------------------|
A|-0----0----0----0------|-7----5----5----3----o||-7----5----5----3-----|
D|-0----0----0----0----0-|-7--0-5--0-5--0-3-----||-7--0-5--0-5--0-3--0--|

    4:55
     Am                        A5/G    A5/F#             N.C.
     Gtr VI
      Q   E  E  E  E  Q   E  E  E  E    E  E  E  E  E  E  Q   E  E  E   E
D||----------------------------------|------------------------------------|
A||o---------------------------------|------------------------------------|
F||--11--11-11-11-11-14--14-14-14-14-|-14s16-16-16-16-16-16--16-16-16--16-|
D||----------------------------------|------------------------------------|
A||o--7---7--7--7--7-10--10-10-10-10-|-10s12-12-12-12-12-12--12-12-12--12-|
D||----------------------------------|------------------------------------|
 |
 |   Gtrs II, III
 |    Q   E  E  E  E  Q   Q     Q       Q     E  E  E  E  Q   E  E  Q
D||----------------------------------|------------------------------------|
A||o--7---7--7--7--7--7---7-----7----|--7-----7--7--7--7--6---6--6--6\----|
F||---7---7--7--7--7--7---7-----x----|--x-----x--x--x--x--x---x--x--x-----|
D||---7---7--7--7--7--7---7-----7----|--7-----7--7--7--7--x---x--x--x-----|
A||o--7---7--7--7--7--7---7-----7----|--7-----7--7--7--7--6---6--6--6\----|
D||---7---7--7--7--7--7---7-----5----|--4-----4--4--4--4------------------|

   Csus2                     A5                G#
     Q     E    E    E    E   Q   E  E  E  E    E  E  E  E  E  E  Q   E  E Q
D|-------------------------------------------|---------------------------------|
A|-------------------------------------------|---------------------------------|
F|--19----19---19---19---19--18--18-18-18-18-|-18s14-14-14-14-14-14--14-14-9---|
D|-------------------------------------------|---------------------------------|
A|--15----15---15---15---15--14--14-14-14-14-|-14s10-10-10-10-10-10--10-10-5---|
D|-------------------------------------------|---------------------------------|
 |
 |   Q     E    E    E    E   Q   E  E  E  E    Q     E  E  E  E  Q   E  E E E
D|-------------------------------------------|---------------------------------|
A|-(10)--(10)-(10)-(10)-(10)--7---7--7--7--7-|--6-----6--6--6--6--6---6--6-6-6-|
F|---9-----9----9----9----9---x---x--x--x--x-|--7-----7--7--7--7--7---7--7-7-7-|
D|--10----10---10---10---10---7---7--7--7--7-|--6-----6--6--6--6--6---6--6-6-6-|
A|--10----10---10---10---10---7---7--7--7--7-|--6-----6--6--6--6--6---6--6-6-6-|
D|--10----10---10---10---10---7---7--7--7--7-|--6-----6--6--6--6--6---6--6-6-6-|

   Am                         A5/G  A5/F#        N.C.
   E  E  E  E  E  E  Q   E  E  Q     E E E E E E  Q   E  E  E   E
D|--------------------------------|-------------------------------|
A|--------------------------------|-------------------------------|
F|-9s11-11-11-11-11-14--14-14-16--|-16s9-9-9-9-9-10--10-10-10--10-|
D|--------------------------------|-------------------------------|
A|-5s=7--7--7--7--7-10--10-10-12--|-12s5-5-5-5-5--6---6--6--6---6-|
D|--------------------------------|-------------------------------|
 |
 | Q     E  E  E  E  Q   Q     Q     Q   E E E E  Q   E  E  Q
D|--------------------------------|-------------------------------|
A|-7-----7--7--7--7--7---7-----7--|--7---7-7-7-7--6---6--6--6\----|
F|-7-----7--7--7--7--7---7-----x--|--x---x-x-x-x--x---x--x--x-----|
D|-7-----7--7--7--7--7---7-----7--|--7---7-7-7-7--x---x--x--x-----|
A|-7-----7--7--7--7--7---7-----7--|--7---7-7-7-7--6---6--6--6\----|
D|-7-----7--7--7--7--7---7-----5--|--4---4-4-4-4------------------|

   Csus2                     A5
     Q     E    E    Q        Q   E  E  Q
D|-------------------------------------12---|
A|------------------------------------------|
F|--14----14---14---14\------11--11-11--9---|
D|------------------------------------------|
A|--10----10---10---10\-------7---7--7------|
D|------------------------------------------|
 |
 |   Q     E    E    E    E   Q   E  E  E E
D|------------------------------------------|
A|-(10)--(10)-(10)-(10)-(10)--7---7--7--7-7-|
F|---9-----9----9----9----9---x---x--x--x-x-|
D|--10----10---10---10---10---7---7--7--7-7-|
A|--10----10---10---10---10---7---7--7--7-7-|
D|--10----10---10---10---10---7---7--7--7-7-|

   G#
    E  E  E  E  E  E  Q   E  E  E  E  3x
D|-12s10-10-10-10-10-10--10-10-10-10--||
A|-----------------------------------o||
F|--9s=7--7--7--7--7--7---7--7--7--7--||
D|------------------------------------||
A|-----------------------------------o||
D|------------------------------------||
 |
 |  Q     E  E  E  E  Q   E  E  E  E  3x
D|------------------------------------||
A|--6-----6--6--6--6--6---6--6--6--6-o||
F|--7-----7--7--7--7--7---7--7--7--7--||
D|--6-----6--6--6--6--6---6--6--6--6--||
A|--6-----6--6--6--6--6---6--6--6--6-o||
D|--6-----6--6--6--6--6---6--6--6--6--||

    5:40
     (A5)                         (Ab5)
     Gtrs II, III
     Q  Q  E E E E E Q  E  4x      Q   Q   E  E E  E E  Q   E  4x
D||------------------------||-||-------------------------------||
A||o----------------------o||-||o-----------------------------o||
F||------------------------||-||--10--10--10-10---10---10--10--||
D||--7--7--7-7---7---7--7--||-||---7---7---7--7----7----7---7--||
A||o----------------------o||-||o-----------------------------o||
D||--7--7--7-7---7---7--7--||-||---7---7---7--7----7----7---7--||

    5:55
     N.C.       D5      N.C.
     Gtr VI
      TP                         TP
      W.                         W.
D||--12-----------------------|-12------------------------||
A||o--------------------------|--------------------------o||
F||---9-----------------------|--9------------------------||
D||---------------------------|---------------------------||
A||o--------------------------|--------------------------o||
D||---------------------------|---------------------------||
 |
 |   Gtrs II, III
 |              PM--|   PM
 |    E E E E E E E E E E E E    E E E Q  E Q  E  E  Q
D||---------------------------|---------------------------||
A||o--------------------------|--------------------------o||
F||---------------------------|---------------------------||
D||---------------------------|-------------6--7-(7)------||
A||o------------0---0---------|-----------5-------6------o||
D||---2p0-2p0---0---0---0-2p0-|--2p0-x-6-------------7\---||

     N.C.       D5      N.C.
      TP                         TP
      W.                         W.
D||--10-----------------------|-10------------------------||
A||o--------------------------|--------------------------o||
F||---7-----------------------|--7------------------------||
D||---------------------------|---------------------------||
A||o--------------------------|--------------------------o||
D||---------------------------|---------------------------||
 |
 |              PM--|   PM
 |    E E E E E E E E E E E E    E E E Q  E Q  E  E  Q
D||---------------------------|---------------------------||
A||o--------------------------|--------------------------o||
F||---------------------------|---------------------------||
D||---------------------------|-------------6--7-(7)------||
A||o------------0---0---------|-----------5-------6------o||
D||---2p0-2p0---0---0---0-2p0-|--2p0-x-6-------------7\---||

    6:26
     N.C.
    4/4
     Gtr VI
     W                           +W
D||----------------------------|-----------------|
A||o---------------------------|-----------------|
F||--9-------------------------|-(9)-------------|
D||----------------------------|-----------------|
A||o---------------------------|-----------------|
D||----------------------------|-----------------|
 |
 |   Gtr II
 |   PM--------------|                  PM--|
 |   S S S S S S S S E E S S E    H     E E E  E
D||----------------------------|-----------------|
A||o---------------------------|-----------------|
F||----------------------------|-----------------|
D||----------------------------|-----------------|
A||o---------------------------|--------------/2-|
D||--0-0-0-0-0-0-0-0-0---0-0-0-|--------3-2-0----|
 |
 |   Gtr III
 |   PM--------------|                  PM--|
 |   S S S S S S S S E E S S E    H     E E E  E
D||----------------------------|-----------------|
A||o---------------------------|-----------------|
F||----------------------------|-----------------|
D||----------------------------|-----------------|
A||o---------------------------|--------------/2-|
D||--0-0-0-0-0-0-0-0-0---0-0-0-|--------3-2-0----|

    +W                     +W
D|----------------------|-----------------||
A|----------------------|----------------o||
F|-(9)------------------|-(9)-------------||
D|----------------------|-----------------||
A|----------------------|----------------o||
D|----------------------|-----------------||
 |
 | +E   E  Q  +E  E E E    E. +S   H.
D|----------------2-----|-----------------||
A|------2-----------0---|----------------o||
F|--------------------3-|-----------------||
D|----------------------|-----------------||
A|-(2)-(2)--------------|----------------o||
D|---------3--(3)-------|--3--(3)s13~~~---||
 |                             
 | +Q      Q  +E  E E E    E. +S   H.
D|----------------2-----|-----------------||
A|------------------0---|----------------o||
F|--------------------3-|-----------------||
D|----------------------|-----------------||
A|-(2)------------------|----------------o||
D|---------3--(3)-------|--3--(3)s13~~~---||

     Gtrs II, III
     PM--------------|                PM----|
     S S S S S S S S E E S S E   Q.   E E E E  E
D||----------------------------|-----------------|
A||o---------------------------|-----------------|
F||----------------------------|-----------------|
D||----------------------------|-----------------|
A||o---------------------------|--------------/2-|
D||--0-0-0-0-0-0-0-0-0---0-0-0-|------0-3-2-0----|

    +E   E  Q  +E  E E E   E. +S   H.
D|----------------2-----|----------------||
A|------2-----------0---|---------------o||
F|--------------------3-|----------------||
D|----------------------|----------------||
A|-(2)-(2)--------------|---------------o||
D|---------3--(3)-------|-3--(3)s13~~~---||
 
   PM--------------|                PM--|
   S S S S S S S S E E S S E   H    E E E  E
D|---------------------------|---------------|
A|---------------------------|---------------|
F|---------------------------|---------------|
D|---------------------------|---------------|
A|---------------------------|------------/2-|
D|-0-0-0-0-0-0-0-0-0---0-0-0-|------3-2-0----|

    +E   E  Q  +E  E E E   E. +S   H.
D|----------------2-----|---------------|
A|------2-----------0---|---------------|
F|--------------------3-|---------------|
D|----------------------|---------------|
A|-(2)-(2)--------------|---------------|
D|---------3--(3)-------|-3--(3)s13~~~--|
 
   PM--------------|                PM----|
   S S S S S S S S E E S S E   Q.   E E E E  E
D|---------------------------|-----------------|
A|---------------------------|-----------------|
F|---------------------------|-----------------|
D|---------------------------|-----------------|
A|---------------------------|--------------/2-|
D|-0-0-0-0-0-0-0-0-0---0-0-0-|------0-3-2-0----|
 
                              PM----------|
   +E   E  Q  +E  E E E   +E  E E E E E E E
D|----------------2-----|--------------------|
A|------2-----------0---|--------------------|
F|--------------------3-|-(3)----------------|
D|----------------------|--------------------|
A|-(2)-(2)--------------|-------------0---0--|
D|---------3--(3)-------|-----0-2-3-5---5----|

                  Dmadd9                  Gsus2 Gm                       F5
              PM|                   PM|           PM|
    E  E  Q   E E Q    +E  q   E Q  E E   Q.    E E E Q    +E  Q.     Q  Q
D|------------------|------------------|----------------|-------------------|
A|------------------|------------------|----------------|-------------------|
F|------------------|------------------|----------------|-------------------|
D|-2-----0-------2--|-(2)-3-----3------|-7-----8-----8--|-(8)-8------8------|
A|----0-(0)------0--|-(0)-0-----0------|-5-----5-----5--|-(5)-5------5--3---|
D|-----------0-0-0--|-(0)-0---0-0--0-0-|-5-----5-5-5-5--|-(5)-5------5--3---|
 |
 | Gtrs IV, V
 | H.            Q     E  E E E Q  E E   Q   E E E E Q     E  E  E E Q  E E
D|------------------|------------------|----------------|-------------------|
A|------------------|-----0------------|----------------|-------------------|
F|------------------|-----0---0----x-x-|----------------|-------------------|
D|---------------2--|--2--2-2-2-2--x-x-|-7-----8-----8--|-----8--8---8------|
A|---------------0--|--0--0-0-0-0--x-x-|-5---5-5-5-5-5--|--5--5--5-5-5--3-3-|
D|---------------0--|--0--0-0-0-0--x-x-|-5---5-5-5-5-5--|--5--5--5-5-5--3-3-|

    F#madd9                             Em    Dm    N.C.
    Gtr II
          PM|
   Q  E E E E Q    +E  Q.     Q  E E   Q.    E Q   Q    +E  E E E Q  E E
D|---------------|-------------------|----------------|------------------|
A|-4--4-4-----4--|-(4)-4------4------|----------------|------------------|
F|-4--4-4-----4--|-(4)-4------4--0-0-|-2-----2--------|------------------|
D|-6--6-6-----6--|-(6)-6------6--0-0-|-2-----2--------|------------------|
A|-4--4-4-----4--|-(4)-4------4------|-------------2--|-(2)-2h3p2--------|
D|-4--4-4-4-4-4--|-(4)-4------4------|----------------|-----------3--3-3-|
 |
 | Gtr III
 |        PM|
 | Q  E E E E Q    +E  Q.     Q  E E   Q.    E Q   Q    +E  E E E Q  E E
D|---------------|-------------------|----------------|------------------|
A|-4--4-4-----4--|-(4)-4------4------|----------------|------------------|
F|-4--4-4-----4--|-(4)-4------4--0-0-|----------------|------------------|
D|-6--6-6-----6--|-(6)-6------6--0-0-|-5-----3-----3--|-(3)--------------|
A|-4--4-4-----4--|-(4)-4------4------|-------------2--|-(2)-2h3p2--------|
D|-4--4-4-4-4-4--|-(4)-4------4------|----------------|-----------3--3-3-|
 |
 | Gtrs IV, V
 | Q  E E E E Q     E  E  E E Q  E E   Q   E E E E Q    +E  E E E Q  E E
D|---------------|-------------------|----------------|------------------|
A|------4--------|-----4----4--------|----------------|------------------|
F|------4-4-4-4--|--4--4--4-4-4--0-0-|-2---2-0-0-0----|------------------|
D|-6--6-6-6-6-6--|--6--6--6-6-6--0-0-|-2---2-0-0-0----|------------------|
A|-4--4-4-4-4-4--|--4--4--4-4-4------|-------------2--|-(2)-2h3p2--------|
D|-4--4-4-4-4-4--|--4--4--4-4-4------|----------------|-----------3--3-x-|

    7:07
     Dmadd9                           Gsus2Gm                    F5
     Gtrs IV, V
     Q  E E E E Q    E E E E Q  E E   Q  E E E E Q    E E E E Q  E E
D||----------------|----------------|---------------|-----------------|
A||o------0--------|---0------------|---------------|-----------------|
F||-------0-0-0----|---0---0----x-x-|---------------|-----------------|
D||--2--2-2-2-2-2--|-2-2-2-2-2--x-x-|-7----8-----8--|---8-8---8-------|
A||o-0--0-0-0-0-0--|-0-0-0-0-0--x-x-|-5--5-5-5-5-5--|-5-5-5-5-5--3-3--|
D||--0--0-0-0-0-0--|-0-0-0-0-0--x-x-|-5--5-5-5-5-5--|-5-5-5-5-5--3-3--|

   F#madd9                          Em   Dm    N.C.
   Q  E E E E Q    E E E E Q  E E   Q  E E E E Q    +E  E E E Q  E E
D|---------------|----------------|---------------|-------------------||
A|------4--------|---4---4--------|---------------|------------------o||
F|------4-4-4-4--|-4-4-4-4-4--0-0-|-2--2-0-0-0----|-------------------||
D|-6--6-6-6-6-6--|-6-6-6-6-6--0-0-|-2--2-0-0-0----|-------------------||
A|-4--4-4-4-4-4--|-4-4-4-4-4------|------------2--|-(2)-2h3p2--------o||
D|-4--4-4-4-4-4--|-4-4-4-4-4------|---------------|-----------3--3-x--||

   Dmadd9                           Gsus2Gm                    F5
   Q  E E E E Q    E E E E Q  E E   Q  E E E E Q    E E E E Q  E E
D|---------------|----------------|---------------|----------------|
A|------0--------|---0------------|---------------|----------------|
F|------0-0-0----|---0---0----x-x-|---------------|----------------|
D|-2--2-2-2-2-2--|-2-2-2-2-2--x-x-|-7----8-----8--|---8-8---8------|
A|-0--0-0-0-0-0--|-0-0-0-0-0--x-x-|-5--5-5-5-5-5--|-5-5-5-5-5--3-3-|
D|-0--0-0-0-0-0--|-0-0-0-0-0--x-x-|-5--5-5-5-5-5--|-5-5-5-5-5--3-3-|

   F#madd9                          Em   Dm    N.C.
   Q  E E E E Q    E E E E Q  E E   Q  E E E E Q    +E  E E E H
D|---------------|----------------|---------------|----------------|
A|------4--------|---4---4--------|---------------|----------------|
F|------4-4-4-4--|-4-4-4-4-4--0-0-|-2--2-0-0-0----|----------------|
D|-6--6-6-6-6-6--|-6-6-6-6-6--0-0-|-2--2-0-0-0----|----------------|
A|-4--4-4-4-4-4--|-4-4-4-4-4------|------------2--|-(2)-2h3p2------|
D|-4--4-4-4-4-4--|-4-4-4-4-4------|---------------|-----------3----|

     Dmadd9
     Gtr VI
     Q.    E +E  E Q     E  Q   E Q   E E
D||--7-----7-(7)-7-7--|--7--7---7-7\--5-5-|
A||o------------------|-------------------|
F||--4-----4-(4)-4-4--|--4--4---4-4\--2-2-|
D||-------------------|-------------------|
A||o------------------|-------------------|
D||-------------------|-------------------|
 |
 |   Gtrs II, III
 |                                    PM|
 |   Q.    E +Q    Q    +E  Q   E Q   E E
D||-------------------|-------------------|
A||o------------------|-------------------|
F||-------------------|-------------------|
D||--2-----3-(3)---3--|-(3)-3-----3-------|
A||o-0-----0-(0)---0--|-(0)-0-----0-------|
D||--0-----0-(0)---0--|-(0)-0---0-0---0-0-|
 |
 |   Gtrs IV, V
 |   Q   E E  E  E Q     E  E E E Q   E E
D||-------------------|-------------------|
A||o-------0----------|-----0-------------|
F||--------0--0--0----|-----0---0-----x-x-|
D||--2---2-2--2--2-2--|--2--2-2-2-2---x-x-|
A||o-0---0-0--0--0-0--|--0--0-0-0-0---x-x-|
D||--0---0-0--0--0-0--|--0--0-0-0-0---x-x-|

   Gsus2  Gm                         F5
    Q.    E +Q    Q     E  Q    E Q  Q
D|-/8-----8-(8)---5--|--5--5----5-5--3----|
A|-------------------|--------------------|
F|-/5-----5-(5)---2--|--2--2----2-2--0----|
D|-------------------|--------------------|
A|-------------------|--------------------|
D|-------------------|--------------------|
 |
 |           PM-|
 |  Q.    E  E  E Q    +E  Q.     Q  Q
D|-------------------|--------------------|
A|-------------------|--------------------|
F|-------------------|--------------------|
D|--7-----8-------8--|-(8)-8------8-------|
A|--5-----5-------5--|-(5)-5------5--3----|
D|--5-----5--5--5-5--|-(5)-5------5--3----|
 |
 |  Q   E E  E  E Q     E  E  E E Q  E E
D|-------------------|--------------------|
A|-------------------|--------------------|
F|-------------------|--------------------|
D|--7-----8-------8--|-----8--8---8-------|
A|--5---5-5--5--5-5--|--5--5--5-5-5--3-3--|
D|--5---5-5--5--5-5--|--5--5--5-5-5--3-3--|

   1.
   F#madd9
    Q   E  E  +Q     Q     E  E  Q   Q  E E
D|----------------------|-------------------|
A|-11--11-11-(11)\---4--|--4--4--4---4--4-4-|
F|----------------------|-------------------|
D|----------------------|-------------------|
A|-11--11-11-(11)\---4--|--4--4--4---4--4-4-|
D|----------------------|-------------------|
 |
 |             PM--|
 |  Q   E  E   E   E Q    +E  Q.     Q  E E
D|----------------------|-------------------|
A|--4---4--4---------4--|-(4)-4------4------|
F|--4---4--4---------4--|-(4)-4------4--0-0-|
D|--6---6--6---------6--|-(6)-6------6--0-0-|
A|--4---4--4---------4--|-(4)-4------4------|
D|--4---4--4---4---4-4--|-(4)-4------4------|
 |
 |  Q   E  E   E   E Q     E  E  E E Q  E E
D|----------------------|-------------------|
A|---------4------------|-----4----4--------|
F|---------4---4---4-4--|--4--4--4-4-4--0-0-|
D|--6---6--6---6---6-6--|--6--6--6-6-6--0-0-|
A|--4---4--4---4---4-4--|--4--4--4-4-4------|
D|--4---4--4---4---4-4--|--4--4--4-4-4------|

   Em    Dm      N.C.
   Q.    E +Q    Q    +E  E E E Q  Q
D|------------------|-----7-7-7-7--7----||
A|-7-----8-(8)---5--|-(5)--------------o||
F|------------------|-----4-4-4-4--4----||
D|------------------|-------------------||
A|------------------|------------------o||
D|------------------|-------------------||
 |
 | Q.    E  Q    Q    +E  E E E Q  E E
D|------------------|-------------------||
A|------------------|------------------o||
F|-2-----0----------|-------------------||
D|-2-----0----------|-------------------||
A|---------------2--|-(2)-2h3p2--------o||
D|------------------|-----------3--3-3--||
 |
 | Q   E E  E  E Q    +E  E E E Q  E E
D|------------------|-------------------||
A|------------------|------------------o||
F|-2---2-0--0--0----|-------------------||
D|-2---2-0--0--0----|-------------------||
A|---------------2--|-(2)-2h3p2--------o||
D|------------------|-----------3--3-x--||

   2.
   F#madd9
    Q   E  E  +Q     Q     E  E  Q   Q  E E
D|----------------------|-------------------|
A|-11--11-11-(11)\---4--|--4--4--4---4--4-4-|
F|----------------------|-------------------|
D|----------------------|-------------------|
A|-11--11-11-(11)\---4--|--4--4--4---4--4-4-|
D|----------------------|-------------------|
 |
 |             PM--|
 |  Q   E  E   E   E Q    +E  Q.     Q  E E
D|----------------------|-------------------|
A|--4---4--4---------4--|-(4)-4------4------|
F|--4---4--4---------4--|-(4)-4------4--0-0-|
D|--6---6--6---------6--|-(6)-6------6--0-0-|
A|--4---4--4---------4--|-(4)-4------4------|
D|--4---4--4---4---4-4--|-(4)-4------4------|
 |
 |  Q   E  E   E   E Q     E  E  E E Q  E E
D|----------------------|-------------------|
A|---------4------------|-----4----4--------|
F|---------4---4---4-4--|--4--4--4-4-4--0-0-|
D|--6---6--6---6---6-6--|--6--6--6-6-6--0-0-|
A|--4---4--4---4---4-4--|--4--4--4-4-4------|
D|--4---4--4---4---4-4--|--4--4--4-4-4------|

   Em    Dm      N.C.
                       |--3---| |--3--| |-3--| |--3---|
   Q.    E +Q    Q     E  E   E E E   E E E  E E E    E
D|------------------|-------------------------------------|
A|-7-----8-(8)---5--|-------------------------------------|
F|------------------|--------------------------7h9h==10---|
D|------------------|-----------5h7h==8-7h8h10------------|
A|------------------|--5h=7h==8---------------------------|
D|------------------|-------------------------------------| 
 |
 | Q.    E  Q    Q    +E    E   E   E   Q      E   E
D|------------------|-------------------------------------|
A|------------------|-------------------------------------|
F|-2-----0----------|-------------------------------------|
D|-2-----0----------|-------------------------------------|
A|---------------2--|-(2)---2h==3p==2---------------------|
D|------------------|-------------------3------3---3------|
 |
 | Q   E E  E  E Q    +E    E   E   E   Q      E   E
D|------------------|-------------------------------------|
A|------------------|-------------------------------------|
F|-2---2-0--0--0----|-------------------------------------|
D|-2---2-0--0--0----|-------------------------------------|
A|---------------2--|-(2)---2h==3p==2---------------------|
D|------------------|-------------------3------3---x------|

  Guitar Solo 2
   Dmadd9
   ~~~~~~~~~~~~~~~~~~~~~~~
   W                  +E  E  E  E  Q   E  E
D|------------------|-----------------12-14-|
A|------------------|----------10-12--------|
F|-9----------------|-(9)-9-12--------------|
D|------------------|-----------------------|
A|------------------|-----------------------|
D|------------------|-----------------------|
 |
 |                                     PM|
 | Q.    E +Q    Q    +E  Q     E  Q   E  E
D|------------------|-----------------------|
A|------------------|-----------------------|
F|------------------|-----------------------|
D|-2-----3-(3)---3--|-(3)-3--------3--------|
A|-0-----0-(0)---0--|-(0)-0--------0--------|
D|-0-----0-(0)---0--|-(0)-0-----0--0---0--0-|
 |
 | Q   E E  E  E Q     E  E  E  E  Q   E  E
D|------------------|-----------------------|
A|-------0----------|-----0-----------------|
F|-------0--0--0----|-----0-----0------x--x-|
D|-2---2-2--2--2-2--|--2--2--2--2--2---x--x-|
A|-0---0-0--0--0-0--|--0--0--0--0--0---x--x-|
D|-0---0-0--0--0-0--|--0--0--0--0--0---x--x-|

   Gsus2          Gm                                                  F5
                                                                  ~~~~
    E      +Q.       S  +S      +S   S  Q     +Q      E  +E      +H
D|-14b15==(14)r-----14-(14)b15-(14)p12-----|--------------------------------|
A|-------------------------------------13--|-(13)----12-(12)b13-(12)--------|
F|-----------------------------------------|--------------------------------|
D|-----------------------------------------|--------------------------------|
A|-----------------------------------------|--------------------------------|
D|-----------------------------------------|--------------------------------|
 |
 |                   PM--------|
 |  Q.            E  E           E      Q     +E  Q.              Q   Q
D|-----------------------------------------|--------------------------------|
A|-----------------------------------------|--------------------------------|
F|-----------------------------------------|--------------------------------|
D|--7-------------8---------------------8--|--(8)-8---------------8---------|
A|--5-------------5---------------------5--|--(5)-5---------------5---3-----|
D|--5-------------5--5-----------5------5--|--(5)-5---------------5---3-----|
 |
 |  Q           E E  E           E      Q      E  E   E   E       Q   E E
D|-----------------------------------------|--------------------------------|
A|-----------------------------------------|--------------------------------|
F|-----------------------------------------|--------------------------------|
D|--7-------------8---------------------8--|------8---8-----------8---------|
A|--5-----------5-5--5-----------5------5--|---5--5---5---5-------5---3-3---|
D|--5-----------5-5--5-----------5------5--|---5--5---5---5-------5---3-3---|

  F#madd9
                         T         ~~     T   ~~     T
       |--3---|                               |-3-|
   Q  +E  E   E S S S S  Q     +S  S S S  Q   S S S  E  +E  E
D|--------------------------|---------------------------------|
A|-6--(6)h7p==6h9p7p6h7h14--|-(14)p7p6h7h16p==6h7p6h18-(18)-6-|
F|--------------------------|---------------------------------|
D|--------------------------|---------------------------------|
A|--------------------------|---------------------------------|
D|--------------------------|---------------------------------|
 |
 |              PM--|
 | Q   E    E   E   E    Q     +E    Q.       Q          E  E
D|--------------------------|---------------------------------|
A|-4---4----4------------4--|--(4)---4--------4---------------|
F|-4---4----4------------4--|--(4)---4--------4----------0--0-|
D|-6---6----6------------6--|--(6)---6--------6----------0--0-|
A|-4---4----4------------4--|--(4)---4--------4---------------|
D|-4---4----4---4---4----4--|--(4)---4--------4---------------|
 |
 | Q   E    E   E   E    Q      E    E    E E Q          E  E
D|--------------------------|---------------------------------|
A|----------4---------------|--------4------4-----------------|
F|----------4---4---4----4--|---4----4----4-4-4----------0--0-|
D|-6---6----6---6---6----6--|---6----6----6-6-6----------0--0-|
A|-4---4----4---4---4----4--|---4----4----4-4-4---------------|
D|-4---4----4---4---4----4--|---4----4----4-4-4---------------|

   Em     Dm      N.C.
                                  ~~~~~~~
    Q   E Q   S S E E    E  E E   E  +Q   E  E
D|--------------------|------------------------|
A|-/7---8-7h==8p7p5p0-|--5--7-8-/10-(10)--8-10-|
F|--------------------|------------------------|
D|--------------------|------------------------|
A|--------------------|------------------------|
D|--------------------|------------------------|
 |
 |  Q.    E Q     Q     +E  E E   E   Q   E  E
D|--------------------|------------------------|
A|--------------------|------------------------|
F|--2-----0-----------|------------------------|
D|--2-----0-----------|------------------------|
A|----------------2---|-(2)-2h3p==2------------|
D|--------------------|---------------3---3--3-|
 |
 |  Q   E E E E   Q     +E  E E   E   Q   E  E
D|--------------------|------------------------|
A|--------------------|------------------------|
F|--2---2-0-0-0-------|------------------------|
D|--2---2-0-0-0-------|------------------------|
A|----------------2---|-(2)-2h3p==2------------|
D|--------------------|---------------3---3--x-|

  Dmadd9
                      ~~~~~~~~~~~~~~~~~~~
                                                             |--3--|
    Q      E  E      +Q     +Q      +Q      e.    s  +E   E  S  S  S  E
D|--------10---------------------|--------------------------------------|
A|-10b12-----10b12==(10)---(10)--|-(10)r--------------------------------|
F|-------------------------------|---------11----12-(12)-14-12h14p12p11-|
D|-------------------------------|--------------------------------------|
A|-------------------------------|--------------------------------------|
D|-------------------------------|--------------------------------------|
 |
 |                                                           PM------|
 |  Q.        E      +Q      Q      +E   Q     E      Q      E        E
D|-------------------------------|--------------------------------------|
A|-------------------------------|--------------------------------------|
F|-------------------------------|--------------------------------------|
D|--2---------3------(3)-----3---|--(3)--3------------3-----------------|
A|--0---------0------(0)-----0---|--(0)--0------------0-----------------|
D|--0---------0------(0)-----0---|--(0)--0-----0------0------0--------0-|
 |
 |  Q      E  E       E  E   Q       E   E  E  E      Q      E        E
D|-------------------------------|--------------------------------------|
A|------------0------------------|-------0------------------------------|
F|------------0-------0--0-------|-------0-----0-------------x--------x-|
D|--2------2--2-------2--2---2---|---2---2--2--2------2------x--------x-|
A|--0------0--0-------0--0---0---|---0---0--0--0------0------x--------x-|
D|--0------0--0-------0--0---0---|---0---0--0--0------0------x--------x-|

   Gsus2      Gm                                        F5
    |-3--|  |-3-|
    E  E E  Q   E  S  S  S  S  S  S S S   +H.           E E
D|--------------------------------------|-------------------|
A|--------------------------------------|-------------------|
F|-12p11p9h11---9-11h12h14p11h12p11p9---|-------------------|
D|------------------------------------8-|-(8)-----------6h7-|
A|--------------------------------------|-------------------|
D|--------------------------------------|-------------------|
 |
 |                 PM---|
 |  Q.        E    E     E     Q          +E  Q.     Q  Q
D|--------------------------------------|-------------------|
A|--------------------------------------|-------------------|
F|--------------------------------------|-------------------|
D|--7---------8----------------8--------|-(8)-8------8------|
A|--5---------5----------------5--------|-(5)-5------5--3---|
D|--5---------5----5-----5-----5--------|-(5)-5------5--3---|
 |
 |  Q       E E    E     E     Q           E  E  E E Q  E E
D|--------------------------------------|-------------------|
A|--------------------------------------|-------------------|
F|--------------------------------------|-------------------|
D|--7---------8----------------8--------|-----8--8---8------|
A|--5-------5-5----5-----5-----5--------|--5--5--5-5-5--3-3-|
D|--5-------5-5----5-----5-----5--------|--5--5--5-5-5--3-3-|

  F#madd9
                                             \7
   |-3-| |--3--| |--3--|
   E E E E E   E E E   E Q    +Q      Q     +H
D|--------------------------|-------------------------|
A|--------------------------|-------------------------|
F|--------------------------|-------------------------|
D|-9p7p6-7p6-----6----------|-------------------------|
A|-------------7---7p==5p4--|-(4)----[4]---([4])------|
D|--------------------------|-------------------------|
 |
 |               PM--|
 | Q     E   E   E   E   Q    +E  Q.         Q    E E
D|--------------------------|-------------------------|
A|-4-----4---4-----------4--|-(4)-4----------4--------|
F|-4-----4---4-----------4--|-(4)-4----------4----0-0-|
D|-6-----6---6-----------6--|-(6)-6----------6----0-0-|
A|-4-----4---4-----------4--|-(4)-4----------4--------|
D|-4-----4---4---4---4---4--|-(4)-4----------4--------|
 |
 | Q     E   E   E   E   Q     E  E   E  E   Q    E E
D|--------------------------|-------------------------|
A|-----------4--------------|-----4------4------------|
F|-----------4---4---4---4--|--4--4---4--4---4----0-0-|
D|-6-----6---6---6---6---6--|--6--6---6--6---6----0-0-|
A|-4-----4---4---4---4---4--|--4--4---4--4---4--------|
D|-4-----4---4---4---4---4--|--4--4---4--4---4--------|

   Em       Dm       N.C.
    Q.       +Q.      Q     +E   Q    S  S Q  Q
D|-----------------------|------------------------|
A|-----------------------|------------------------|
F|-14b16----(14)-----12--|-(12)-11h==12p11-9--7---|
D|-----------------------|------------------------|
A|-----------------------|------------------------|
D|-----------------------|------------------------|
 |
 |  Q.        E  Q    Q     +E   E E  E    Q  E E
D|-----------------------|------------------------|
A|-----------------------|------------------------|
F|--2---------0----------|------------------------|
D|--2---------0----------|------------------------|
A|--------------------2--|--(2)--2h3p=2-----------|
D|-----------------------|-----------------3--3-3-|
 |
 |  Q     E   E  E E  Q     +E   E E  E    Q  E E
D|-----------------------|------------------------|
A|-----------------------|------------------------|
F|--2-----2---0--0-0-----|------------------------|
D|--2-----2---0--0-0-----|------------------------|
A|--------------------2--|--(2)--2h3p=2-----------|
D|-----------------------|-----------------3--3-x-|

   8:19
      Dm          Amadd11/D
      Gtr VI
    a W                 +W
D|-------------------|-------------------|
A|-------------------|-------------------|
F|-7s9---------------|-(9)---------------|
D|-------------------|-------------------|
A|-------------------|-------------------|
D|-------------------|-------------------|
 |
 |   Gtrs II, III
 |   E E E E E E E E    E  E E E E E E E
D|---3-3-3-3-----0-0-|--0--0-x-x-0-0-----|
A|---5-5-5-5-x-x-3-3-|--3--3-x-x-3-3-x-x-|
F|---4-4-4-4-x-x-4-4-|--4--4-x-x-4-4-x-x-|
D|---0-0-0-0-0-0-0-0-|--0--0-0-0-0-0-0-0-|
A|---0-0-0-0-0-0-0-0-|--0--0-0-0-0-0-0-0-|
D|---0-0-0-0-0-0-0-0-|--0--0-0-0-0-0-0-0-|

   N.C.
    >
   +W                      +W
D|-----------------------|------------------|
A|-----------------------|------------------|
F|-(9)-------------------|-(9)--------------|
D|-----------------------|------------------|
A|-----------------------|------------------|
D|-----------------------|------------------|
 |
 |  E   E  E  E  E  E Q    +E   E E E Q  Q
D|-----------------------|------------------|
A|-----------------------|------------------|
F|-----------------------|------------------|
D|-12--12-12-12-12-12-8--|-(8)\-2-2-2-2--2--|
A|-----------------------|------------------|
D|-12--12-12-12-12-12-8--|-(8)\-2-2-2-2--2--|

     Am          Am/C
     Gtr II
     E E E E E E  Q     +E   E  E  E  Q   Q
D||------------------|-----------------------|
A||o-----------------|-----------------------|
F||--7-7-7-7-7-7-----|-----------------------|
D||------------------|-----------------------|
A||o--------------7--|--(7)--7--7--7--7---7--|
D||--------------10--|-(10)-10-10-10-10--10--|
 |
 |   Gtr III
 |   E E E E E E  Q     +E   E  E  E  Q   Q
D||------------------|-----------------------|
A||o-----------------|-----------------------|
F||------------------|-----------------------|
D||--7-7-7-7-7-7--7--|--(7)--7--7--7--7---7--|
A||o-7-7-7-7-7-7--7--|--(7)--7--7--7--7---7--|
D||--7-7-7-7-7-7-10--|-(10)-10-10-10-10--10--|

   N.C.
   E E E E E E E E   +E  +E    +E  E E E Q
D|-----------------|-------------------------|
A|-----------------|-------------------------|
F|-----------------|-------------------------|
D|-----------------|-------------------------|
A|-3h5-----0h3-5-7-|-(7)-(7)b8-(7)-5-3-5-----|
D|-----7p5---------|---------------------0---|
 |
 | E E E E E E E E   +E  +E    +E  E E E Q
D|-----------------|-------------------------|
A|-----------------|-------------------------|
F|-----------------|-------------------------|
D|-----------------|-------------------------|
A|-3h5-----0h3-5-7-|-(7)-(7)b8-(7)-5-3-5-----|
D|-----7p5---------|---------------------0---|

   1.
   Dm          Amadd11/D               N.C.
   Gtrs II, III
   E E E E E E E E   E E E E E E E E    E  E  E  E  E  E Q    +E  Q.   H
D|-3-3-3-3-----0-0-|-0-0-x-x-0-0-----|----------------------|----------------||
A|-5-5-5-5-x-x-3-3-|-3-3-x-x-3-3-x-x-|----------------------|---------------o||
F|-4-4-4-4-x-x-4-4-|-4-4-x-x-4-4-x-x-|----------------------|----------------||
D|-0-0-0-0-0-0-0-0-|-0-0-0-0-0-0-0-0-|-12-12-12-12-12-12-7--|-(7)-8----8-----||
A|-0-0-0-0-0-0-0-0-|-0-0-0-0-0-0-0-0-|----------------------|---------------o||
D|-0-0-0-0-0-0-0-0-|-0-0-0-0-0-0-0-0-|-12-12-12-12-12-12-7--|-(7)-8----8-----||

   2.
   Dm          Amadd11/D               N.C.
   E E E E E E E E   E E E E E E E E    E  E  E  E  E  E Q    +E   E E E Q  Q
D|-3-3-3-3-----0-0-|-0-0-x-x-0-0-----|----------------------|------------------|
A|-5-5-5-5-x-x-3-3-|-3-3-x-x-3-3-x-x-|----------------------|------------------|
F|-4-4-4-4-x-x-4-4-|-4-4-x-x-4-4-x-x-|----------------------|------------------|
D|-0-0-0-0-0-0-0-0-|-0-0-0-0-0-0-0-0-|-12-12-12-12-12-12-8--|-(8)\-2-2-2-2--2--|
A|-0-0-0-0-0-0-0-0-|-0-0-0-0-0-0-0-0-|----------------------|------------------|
D|-0-0-0-0-0-0-0-0-|-0-0-0-0-0-0-0-0-|-12-12-12-12-12-12-8--|-(8)\-2-2-2-2--2--|

   Am          Am/C
   Gtr II
   E E E E E E  Q     +E   E  E  E  Q   Q
D|-----------------|-----------------------|
A|-----------------|-----------------------|
F|-7-7-7-7-7-7-----|-----------------------|
D|-----------------|-----------------------|
A|--------------7--|--(7)--7--7--7--7---7--|
D|-------------10--|-(10)-10-10-10-10--10--|
 |
 | Gtr III
 | E E E E E E  Q     +E   E  E  E  Q   Q
D|-----------------|-----------------------|
A|-----------------|-----------------------|
F|-----------------|-----------------------|
D|-7-7-7-7-7-7--7--|--(7)--7--7--7--7---7--|
A|-7-7-7-7-7-7--7--|--(7)--7--7--7--7---7--|
D|-7-7-7-7-7-7-10--|-(10)-10-10-10-10--10--|

   N.C.
   E E E E E E E E   +E  +E    +E  E E E Q
D|-----------------|------------------------|
A|-----------------|------------------------|
F|-----------------|------------------------|
D|-----------------|------------------------|
A|-3h5-----0h3-5-7-|-(7)-(7)b8-(7)-5-3-5----|
D|-----7p5---------|---------------------0--|
 |
 | E E E E E E E E   +E  +E    +E  E E E Q
D|-----------------|------------------------|
A|-----------------|------------------------|
F|-----------------|------------------------|
D|-----------------|------------------------|
A|-3h5-----0h3-5-7-|-(7)-(7)b8-(7)-5-3-5----|
D|-----7p5---------|---------------------0--|

   Dm          Amadd11/D               N.C.
   Gtrs II, III
   E E E E E E E E   E E E E E E E E    E  E  E  E  E  E Q    +E  Q.   H
D|-3-3-3-3-----0-0-|-0-0-x-x-0-0-----|----------------------|---------------|
A|-5-5-5-5-x-x-3-3-|-3-3-x-x-3-3-x-x-|----------------------|---------------|
F|-4-4-4-4-x-x-4-4-|-4-4-x-x-4-4-x-x-|----------------------|---------------|
D|-0-0-0-0-0-0-0-0-|-0-0-0-0-0-0-0-0-|-12-12-12-12-12-12-7--|-(7)-8----8----|
A|-0-0-0-0-0-0-0-0-|-0-0-0-0-0-0-0-0-|----------------------|---------------|
D|-0-0-0-0-0-0-0-0-|-0-0-0-0-0-0-0-0-|-12-12-12-12-12-12-7--|-(7)-8----8----|

   Am          Am/C
   Gtr II
   E E E E E E  Q     +E   E  E  E  Q   Q
D|-----------------|-----------------------|
A|-----------------|-----------------------|
F|-7-7-7-7-7-7-----|-----------------------|
D|-----------------|-----------------------|
A|--------------7--|--(7)--7--7--7--7---7--|
D|-------------10--|-(10)-10-10-10-10--10--|
 |
 | Gtr III
 | E E E E E E  Q     +E   E  E  E  Q   Q
D|-----------------|-----------------------|
A|-----------------|-----------------------|
F|-----------------|-----------------------|
D|-7-7-7-7-7-7--7--|--(7)--7--7--7--7---7--|
A|-7-7-7-7-7-7--7--|--(7)--7--7--7--7---7--|
D|-7-7-7-7-7-7-10--|-(10)-10-10-10-10--10--|

   N.C.
   E E E E E E E E   +E  +E    +E  E E E Q
D|-----------------|------------------------|
A|-----------------|------------------------|
F|-----------------|------------------------|
D|-----------------|------------------------|
A|-3h5-----0h3-5-7-|-(7)-(7)b8-(7)-5-3-5----|
D|-----7p5---------|---------------------0--|
 |
 | E E E E E E E E   +E  +E    +E  E E E Q
D|-----------------|------------------------|
A|-----------------|------------------------|
F|-----------------|------------------------|
D|-----------------|------------------------|
A|-3h5-----0h3-5-7-|-(7)-(7)b8-(7)-5-3-5----|
D|-----7p5---------|---------------------0--|

   G#b5        F#b5          N.C.
   Gtrs II, III
           PM|
   E E E E E E q    q  E E E  Q   E    E  E  E  E  E  Q   E
D|-6-6-6-6-x-x-4--|-4--4-4-4--------|-----------------------|
A|-5-5-5-5-x-x-3--|-3--3-3-3--------|-----------------------|
F|-3-3-3-3-x-x-1--|-1--1-1-1--------|-----------------------|
D|---------0-0----|----------15--14h|=15-13h14----13--------|
A|----------------|-----------------|----------14----12h=14-|
D|----------------|-----------------|-----------------------|

                                         D5
                       3/4              4/4
                                           PM------------|
                                 |--3--|   |--3--| |--3--|
    E  E  E  E  E  Q.      E  E  q  q  q   Q Q E E Q Q E E
D|----------------------|----------------|------------------|
A|----------------------|----------------|------------------|
F|----------------------|----------------|------------------|
D|----------------------|----------------|------------------|
A|-11h12-15-12p11-------|-11h12-15-12-11-|-0-0-0-0-0-0-0-0--|
D|----------------12----|----------------|-0-0-0-0-0-0-0-0--|

  9:07
   Dm            Dm/E        Dm/F        Dm/G
  12/8
   Gtr IV
   E E E E E E E E E E E E   E E E E E E  E E E E E E
D|-------------------------|--------------------------|
A|-------------------------|-------0------------0-----|
F|---------0---------0-----|-----0---0--------0---0---|
D|-----0-----0-----0---0---|---0-------0----0-------0-|
A|---0---0-----5s7-------7-|-8-----------10-----------|
D|-0-----------------------|--------------------------|
 |
 | Gtrs II, III
 | Q   H       H.            W
D|-------------------------|--------------------------|
A|-------------------------|--------------------------|
F|-------------------------|--------------------------|
D|-0-----------------------|--------------------------|
A|-0-----------------------|--------------------------|
D|-0-----------------------|--------------------------|

   Dm/E         Dm
   E E E E E E  E E E E E E
D|----------------------------|
A|-------0------------0-------|
F|-----0---0--------0---0-----|
D|---0------------0-------0---|
A|-7---------8\-5-------------|
D|----------------------------|
 |
 | W
D|----------------------------|
A|----------------------------|
F|----------------------------|
D|----------------------------|
A|----------------------------|
D|----------------------------|

   Dm
   Q   E   E   E   E  Q   E   E   E   E
D|---------------------------------------|
A|---------------------------------------|
F|-0-------0----------0-------0----------|
D|-0---0--(0)--0---0--0---0--(0)--0---0--|
A|-0--(0)-----(0)-(0)-0--(0)-----(0)-(0)-|
D|-0------------------0------------------|

   Dm/C#       Dm/A          C                   N.C.
   E E E E E E E E E E E E   E E E E E E E E E E E E
D|-------------------------|--------------------------|
A|-------0-----------0-----|-------0-----------0------|
F|-----0---0-------0---0---|-----0---0-------0--------|
D|---0-------0---0-------0-|---0-------0---0----------|
A|-4-----------0-----------|--------------------------|
D|-------------------------|-5-----------5-------2h3--|

            Dm   Dm/C   Dm6                     Dm            Dm/E
   Q  Q  Q  Q  E Q  E   Q  E E E E Q  E E E E   E E E E E E E E E E E E
D|--------------------|-----------------------|--------------------------|
A|--------------------|-----------------------|--------------------------|
F|----------0----0----|-0----0-----0----0-----|---------0---------0------|
D|----------0--x-0--x-|-0------0---0------0---|-----0-----0-----0---0----|
A|-------0--5--x-3--x-|-2--2-----2-2--2-----2-|---0---0-----5s7-------7--|
D|-2--0--------x----x-|-0---------------------|-0------------------------|

   Dm/F        Dm/G           Dm/E         Dm
   E E E E E E  E E E E E E   E E E E E E  E E E E E E
D|--------------------------|--------------------------|
A|-------0------------0-----|-------0------------0-----|
F|-----0---0--------0---0---|-----0---0--------0---0---|
D|---0-------0----0-------0-|---0------------0-------0-|
A|-8-----------10-----------|-7---------8\-5-----------|
D|--------------------------|--------------------------|

   Dm
   Q   E   E   E   E  Q   E   E   E   E
D|----------------------------------------|
A|----------------------------------------|
F|-0-------0----------0-------0-----------|
D|-0---0--(0)--0---0--0---0--(0)--0---0---|
A|-0--(0)-----(0)-(0)-0--(0)-----(0)-(0)--|
D|-0------------------0-------------------|

   N.C.
  6/4
   Gtrs II, III
                                                 PM|
    Q   E  E  E  E Q  E E E E   Q  E Q  E Q  E E E E
D|----------------------------|----------------------|
A|----------------------------|----------------------|
F|----------------------------|----------------------|
D|-11--11-11-11-11-7--7-7-7-7-|-5--5-5--5-5--5-5-----|
A|----------------------------|----------------------|
D|-11--11-11-11-11-7--7-7-7-7-|-5--5-5--5-5--5-5-2-3-|

                   Csus2  Dm/B
   Q  Q   Q   Q  E Q.     Q  E Q  E Q  E Q.
D|----------------------|----------------------|
A|----------------------|----------------------|
F|----------------------|-0----0----0----0-----|
D|------------0--0-0----|-0----0----0----0-----|
A|--------0---5--5-3----|-2--2-2--2-2--2-2-----|
D|-2--0--(0)------------|----------------------|

  [Outro]
     N.C.
     Q  E E E E E  E  E E E E   Q  E E E E  Q   E  E  E  E
D||---------------------------|----------------------------|
A||o--------------------------|----------------------------|
F||---------------------------|----------------------------|
D||---------------------------|----------------------------|
A||o-5--5-5-5-5-5s=7--7-7-7-7-|-8--8-8-8-8-10--10-10-10-10-|
D||--0--0-0-0-0-0-(0)-0-0-0-0-|-0--0-0-0-0--0---0--0--0--0-|

   Q  E E E  E  Q  E E Q    Q  E E Q  Q  E E Q
D|------------------------|-----------------------|
A|------------------------|-----------------------|
F|------------------------|-----------------------|
D|------------------------|-----------------------|
A|-7--7-7-8p=7--5--5-5-5--|-5--5-5-5--5--5-5-5----|
D|-0--0-0-0-(0)-0--0-0-0--|-0--0-0-0--0--0-0-0----|

   N.C.
    Q   E  E  E  E Q  E E E E   Q  E Q  E Q  E E E E
D|----------------------------|----------------------|
A|----------------------------|----------------------|
F|----------------------------|----------------------|
D|-11--11-11-11-11-7--7-7-7-7-|-5--5-5--5-5--5-5-----|
A|----------------------------|----------------------|
D|-11--11-11-11-11-7--7-7-7-7-|-5--5-5--5-5--5-5-2-3-|

   1.
                   Csus2  Dm/B
   Q  Q   Q   Q  E Q.     Q  E Q  E Q  E Q.
D|----------------------|-----------------------||
A|----------------------|----------------------o||
F|----------------------|-0----0----0----0------||
D|------------0--0-0----|-0----0----0----0------||
A|--------0---5--5-3----|-2--2-2--2-2--2-2-----o||
D|-2--0--(0)------------|-----------------------||

     2.                      1.,2.,3.                  4.
     N.C.       Dm           Dmadd9/C          N.C.    Dmadd9/C
     Gtrs II, III
     Q  Q   Q   Q   e Q  E   Q  E E E E Q  E E E E     Q  E E E E Q  E E E E
D||------------------------|------------------------||-----------------------|
A||o-----------------------|-----------------------o||-----------------------|
F||------------------------|------------------------||-----------------------|
D||------------------------|------------------------||-----------------------|
A||o--------0---5---x-0--x-|-3--3-3-3-3-3--3-3-----o||-3--3-3-3-3-3--3-3-3-3-|
D||--2--0--(0)-------------|-5--5-5-5-5-5--5-5-2h3--||-5--5-5-5-5-5--5-5-5-5-|
 |
  |   Gtrs IV, V
 |   Q  Q   Q   E E E q  E   Q  E E E E Q  E E E E     Q  E E E E Q  E E E E
D||-------------3-3---0----|-2--2-2-2-2-2-----------||-2--2-2-2-2-2--2-2-2-2-|
A||o------------0-0-x-0----|-0--0-0-0-0-0--x-------o||-0--0-0-0-0-0--0-0-0-0-|
F||-------------0-0-x-0--x-|-0--0-0-0-0-0--x--------||-0--0-0-0-0-0--0-0-0-0-|
D||-------------0-0-x-0--x-|-0--0-0-0-0-0--x--------||-0--0-0-0-0-0--0-0-0-0-|
A||o--------0------------x-|-3--3-3-3-3-3--x-------o||-3--3-3-3-3-3--3-3-3-3-|
D||--2--0--(0)-------------|-----------------x-2h3--||-----------------------|

   N.C.
   Gtrs II, III
   E Q  Q  E E Q  Q   E   E  Q  Q  E  E Q   Q   E
D|----------------------|-------------------------|
A|----------------------|-------------------------|
F|----------------------|-------------------------|
D|----------------------|---------------7--10-----|
A|-----------0-3--5--/8-|-7-10--7--8-10-----------|
D|-0-2--3--5------------|----------------------10-|

                                 D5
    E  Q   Q   E  E  Q   Q   E    H.      H.
D|-----------------------------|----------------*|
A|-----------------------------|----------------*|
F|-----------------------------|----------------*|
D|-----------------------------|----------------*|
A|-----------------------------|-12\------------*|
D|-12-12--12--10-12-12--12--10-|-12\------------*|


Duration Legend
---------------
W - whole; H - half; Q - quarter; E - 8th; S - 16th; T - 32nd; X - 64th; a - acciaccatura
+ - note tied to previous; . - note dotted; .. - note double dotted
Uncapitalized letters represent notes that are staccato (1/2 duration)
Irregular groupings are notated above the duration line
Duration letters will always appear directly above the note/fret number it represents the
duration for.  Duration letters with no fret number below them represent rests.  Multi-
bar rests are notated in the form Wxn, where n is the number of bars to rest for.  Low
melody durations appear below the staff

Tablature Legend
----------------
 h   - hammer-on
 p   - pull-off
 b   - bend
 pb  - pre-bend
 r   - bend release (if no number after the r, then release immediately)
 /\  - slide into or out of (from/to "nowhere")
 s   - legato slide
 S   - shift slide
  - natural harmonic
[n]  - artificial harmonic
n(n) - tapped harmonic
 ~   - vibrato
 tr  - trill
 T   - tap
 TP  - trem. picking
 PM  - palm muting
\n/  - tremolo bar dip; n = amount to dip
 \n  - tremolo bar down
 n/  - tremolo bar up
/n\  - tremolo bar inverted dip
 =   - hold bend; also acts as connecting device for hammers/pulls
 <>  - volume swell (louder/softer)
 x   - on rhythm slash represents muted slash
 o   - on rhythm slash represents single note slash

Misc Legend
-----------
 |  - bar
||  - double bar
||o - repeat start
o|| - repeat end
*|  - double bar (ending)
 :  - bar (freetime)
 $  - Segno
 &  - Coda
Tempo markers -  = BPM(8/16=s8/s16), where s8 = swing 8ths, s16 = swing 16ths
Suggest correction
comments
print report bad tab
8 comments total. Showing first comments.
0 reply
BringMeTheCalm 140 Nov 20, 2006 04:07 PM

awesome tab, dude.

0 reply
spencer Cr 507 Mar 02, 2007 02:02 PM

dude did you take this from a magazine b/c is sure looks like it.

anyways 5* it's perfect.

0 reply
Nirvana-Rulez 30 Aug 03, 2007 07:18 PM

insane....opeth is amazing

guest
You may want to rate the tab now too:
select rating
Wanna post a correction for this tab? Suggest correction