Oops, an error
Loading. Please wait.

Heir Apparent Tab

version 1
version 1

Solo

Whole song

9,109 views 6 this week
6 commentsread comments
1 2 3 4 5
excellent!
x 3
add to favorites
launch autoscroll
font size
0
reset
how to read this tab
guitar tuner
Tab Pro tools
  • play this tab
  • loop segment
  • change instrument
  • show fretboard
  • metronome
×
Best way to learn
"Heir Apparent"
Autoscroll
slow
fast
+/-
esc
set tempo
stop
Contributor
-------------------------------------------------------------------------------
                             Heir Apparent - Opeth
-------------------------------------------------------------------------------
Tabbed by: BoggaN
Email: boggan@live.se

Only the tricky part. The other tabs of the first part of this solo is
correct, so I thought I´d only submit the tricky part, which is 100% correct!
I tabbed it out from the video on musicradar.com where they show how to play Heir apparent.

By the way, everything is 32nds in ~112bpm.

Tuning: Standard

e|-15h18p15-------------------------------12h15h18p15p12\9h12h15p12p9--------|
B|----------17---------------------------------------------------------------|
G|-------------18p15\12h15h18p15p12h15h18------------------------------------|
D|---------------------------------------------------------------------------|
A|---------------------------------------------------------------------------|
E|---------------------------------------------------------------------------|

e|---------------9h12h15p12p9------------------------------------------------|
B|--------------------------------------------------8h11h14p11p8-------------|
G|-15p12p9h12h15--------------15p12p9----------------------------------------|
D|------------------------------------14p11p8h11h14--------------------------|
A|---------------------------------------------------------------------------|
E|---------------------------------------------------------------------------|

e|---------------9h12h15p12p9------------------------------------------------|
B|---------------------------------------------------------------------------|
G|-15p12p9h12h15--------------15p12p9-12~------------------------------------|
D|---------------------------------------------------------------------------|
A|---------------------------------------------------------------------------|
E|---------------------------------------------------------------------------|


| /  slide up
| \  slide down
| h  hammer-on
| p  pull-off
| ~  vibrato
| +  harmonic
| x  Mute note
===============================================================================
comments
We did not receive enough feedback on this tab! Please rate:
print report bad tab
1 2 3 4 5
6 comments total. Showing first comments.
0 reply
nufender99 wrote on June 18 2010, 10:42 pm

**TO EVERYONE posting tabs of this part it is JUST an E Diminished arpeggio shape, not moved anywhere and just played in one position across all strings. NOTE: My posted tab is the exact same notes as the one above, the frets are just moved around to be in the arpeggio shape.

e|-15h18p15----------------------------------15h18p15p--------15-------------|
B|----------17----------------------------17----------17---17----17----------|
G|-------------18p15----15h18p15----15h18----------------18--------18--------|
D|-------------------17-----------17-----------------------------------------|
A|---------------------------------------------------------------------------|
E|---------------------------------------------------------------------------|

e|--------------------15-----------------------------------------------------|
B|------------------17--17---------------------------------------------------|
G|-15---------15h18--------18p15----------------------15h18p15---------------|
D|----17---17--------------------17-----------------17--------17-------------|
A|-------19------------------------19-19-16---16h19--------------------------|
E|------------------------------------------18-------------------------------|

e|--------------------15-----------------------------------------------------|
B|------------------17---17--------------------------------------------------|
G|-15---------15-18---------18-15--------------------------------------------|
D|---17----17---------------------17----17-----------------------------------|
A|------19---------------------------19--------------------------------------|
E|---------------------------------------------------------------------------|

0 reply
nufender99 wrote on June 18 2010, 11:04 pm

Correction: BoggaN's way is how it is played in the song. Personally, I find the single arpeggio shape easier to play than the way it is written.

+1 reply
Jamma wrote on June 21 2010, 01:38 pm

Thanks for both of these, very helpful. I think I prefer the Boggan's tab, it's a lot easier to remember, but it's quite a stretch for your hands to do it at speed, so nufender's tab might be better for people with smaller hands =D

I want to post or [tab]
guest
You may want to rate the tab now too:
select rating
Please do not post tabs as comments. Select "correction" instead!