Oops, an error
Loading. Please wait.

Hope Leaves Tab

version 3
version 3

Whole song

Interactive

66,730 views 180 this week
11 commentsread comments
1 2 3 4 5
excellent!
x 33
add to favorites
launch autoscroll
font size
0
reset
how to read this tab
guitar tuner
Tab Pro tools
  • play this tab
  • loop segment
  • change instrument
  • show fretboard
  • metronome
×
Best way to learn
"Hope Leaves"
Autoscroll
slow
fast
+/-
esc
set tempo
stop
Contributor
Difficulty
Capo
intermediate
2nd fret
-------------------------------------------------------------------------------
                             Hope Leaves - Opeth
-------------------------------------------------------------------------------
Tabbed by: Matt Smith
Email: Matthew.A.Smith-1@ou.edu

Tuning: Standard, Capo 2


Intro/Verse
E|---------------0-------------------------------0---------------------------|
B|---------0-------0---0-------------------0-------0---0---------------------|
G|-----5-----5-------5---5-------------5-----5-------5---5-----5-------------|
D|---5---5-----5-------------5---5---5---5-----5-------------5---5-----------|
A|-0-------------------------------------------------------------------------|
E|-------------------------3---0---1-----------------------3-----------------|

Until “There is a wound...”
Then


E|-----------------0-------0-----------------------0-------0-----------------|
B|---------0---------0-------0-------------0---------0-------0---------------|
G|-----5-----5---------5-------5-------5-----5---------5-------5-------------|
D|---4---4-----4---------------------4---4-----4-----------------------------|
A|---------------------------------------------------------------------------|
E|-2-------------1-------1-------1-2-------------1-------1-------1-----------|

E|---------------------------------------------------------------------------|
B|---------0-----------------------------------------------------------------|
G|-----5-----5---------0-------0---------------------------------------------|
D|---4---4-----4-----3---3---3---3-------------------------------------------|
A|---------------------------------------------------------------------------|
E|-2-------------2-1-------3-------------------------------------------------|


Main Riff
E|---------------------------------------------------------------------------|
B|---------------------------------------------------------------------------|
G|-----2---------0-----0-----0-----------2------0-----0-----0----------------|
D|---2---------0-----0-----0-----0-----2------0-----0-----0-----0------------|
A|-0-----0-/-5-----2-----3-----------0----0-2-----3-----5-----7---10---------|
E|-----------------------------3---0-----------------------------------------|


Main Riff Outro
E|---------------------------------------------------------------------------|
B|---------------------------------------------------------------------------|
G|-----2---------0-----0-----0-----------2------0-----0-------7--------------|
D|---2---------0-----0-----0-----0-----2------0-----0-------8---8------------|
A|-0-----0-/-5-----2-----3-----------0----0---------------8-------8----------|
E|-----------------------------3---0--------1-----3-----6-----------6--------|


Rhythm Guitar goes back to verse, Lead does this:
E|---------------------------------------------------------------------------|
B|-10----10-12-13-13-/-15---13p12-10----10-\-8-------------------------------|
G|-----------------------------------12--------7-5-7-7-/-9-------------------|
D|---------------------------------------------------------------------------|
A|---------------------------------------------------------------------------|
E|---------------------------------------------------------------------------|

Then it’s the Verse and Main Riff, without the Outro. After the main riff, there’s
E|---------------------------------------------------------------------------|
B|-5-5-4---------------------------------------------------------------------|
G|-4-4-4----2-0-0-------------4--------2-4-5---------------------------------|
D|-2-2-2----2-0-0-----------5--------2---------------------------------------|
A|-0-0-0----0-2-3---------5--------2-----------------------------------------|
E|--------------1-------3--------4-------------------------------------------|

And Verse again. Lead does this:

E|---------------------------------------------------------------------------|
B|---------------------------------------------------------------------------|
G|-4-5-4-2-4-0---------------------------------------------------------------|
D|-------------0-2-----------------------------------------------------------|
A|---------------------------------------------------------------------------|
E|---------------------------------------------------------------------------|


And then you have the Main Riff until the song fades out.


I tabbed this by ear, so if there are any errors or discrepancies feel free to point 
out to me.


| /  slide up
| \  slide down
| h  hammer-on
| p  pull-off
| ~  vibrato
| +  harmonic
| x  Mute note
===============================================================================
comments
print report bad tab
11 comments total. Showing first comments.
0 reply
Quicksand15 wrote on November 4 2008, 01:51 pm

yeah, seems right

0 reply
#Black Label wrote on May 3 2009, 03:13 pm

It's great!

+2 reply
chris420 wrote on February 24 2010, 04:30 pm

E|------------------ listening to the song it sounds like
B|-5-5-4------------ there should be one more chord in
G|-4-4-4----2-0-0--- the second part. sounds like another
D|-2-2-2----2-0-0--- 0
A|-0-0-0----0-2-3--- 0
E|--------------1--- 2 should be in the middle.

I want to post or [tab]
guest
You may want to rate the tab now too:
select rating
Please do not post tabs as comments. Select "correction" instead!