Oops, an error
Loading. Please wait.

Hours Of Wealth Tab

version 1
version 1

Whole song

Interactive

46,986 views 66 this week
14 commentsread comments
1 2 3 4 5
excellent!
x 26
add to favorites
launch autoscroll
font size
0
reset
how to read this tab
guitar tuner
Autoscroll
slow
fast
+/-
esc
set tempo
stop
Help us to improve Ultimate-Guitar.com Take our survey!
×
Author
Difficulty
intermediate
Title: Hours Of Wealth
Artist: Opeth
Album: Ghost Reveries

Instrument: 6 String Guitar

Tabbed by: Jermey S. (celestial_moon@hotmail.com)

Notes:
Gtr 1-Clean Guitar
Gtr 2-Acoustic Guitar
Gtr 3-Clean Guitar w/ Overdrive




I decided to do this song because I couldnt find a tab online...so please enjoy.  Its a beautiful song.

~ - Let Ring
h - hammer on
p - pull-off
/\ - Slide In/Out
x - Stuccato
^ - Bends (see description for how long and such)


Gtr 1 - Enters (0:00)

E |-----0----------|-------------------|---------------|-1---0--------------||
B |-3--------------|-3p1-0h1---0-------|---------------|--------3-----3~----||
G |-2---2----------|-2------------0--2~|----4----------|----------0---2~----||
D |-2~------3~-----|-2~--------------3~|----5----------|-0~-----------0~----||
A |-0~-------------|-0~----------------|---------------|--------------------||
E |----------------|-------------------|---------------|--------------------||

E |----------------|--8---7---7~----|--5-------------|----------------||
B |-0---1----------|----------------|---------5------|----------------||
G |-0---2----------|----------------|----------------|----------------||
D |-----2----------|--7---5---3~----|------3---------|----------------||
A |-----0----------|----------------|----------------|----------------||
E |-3--------------|----------------|----------------|----------------||

E |-----0----------|-------------------|---------------|-1---0--------------||
B |-3--------------|-3p1-0h1---0-------|---------------|--------3-----3~----||
G |-2---2---2~-----|-2------------0--2~|----4----------|----------0---2~----||
D |-2~------3~-----|-2~--------------3~|----5----------|-0~-----------0~----||
A |-0~-------------|-0~----------------|---------------|--------------------||
E |----------------|-------------------|---------------|--------------------||

E |----------------|--8---7---7~----|--5-------------|----------------||
B |-0---1----------|----------------|---------5------|----------------||
G |-0---2----------|----------------|----------------|----------------||
D |-----2----------|--7---5---3~----|------3---------|----------------||
A |-----0----------|----------------|----------------|----------------||
E |-3--------------|----------------|----------------|----------------||

E |----------------|----------------|----------------0|----------------||
B |---------3~-----|---------3------|-------------1---|----------------||
G |-----2----------|------2-----2---|----------2------|----------------||
D |--0-------------|---0------------|-0-----2---------|----------------||
A |----------------|----------------|----0------------|----------------||
E |----------------|----------------|-----------------|----------------||

E |----------------|----------------|----------------0|----------------||
B |---------3~-----|---------3------|-------------1---|----------------||
G |-----2----------|------2-----2---|----------2------|----------------||
D |--0-------------|---0------------|-0-----2---------|----------------||
A |----------------|----------------|----0------------|----------------||
E |----------------|----------------|-----------------|----------------||

E |----------------|----------------|----------------0|----------------||
B |---------3~-----|---------3------|-------------1---|----------------||
G |-----2----------|------2-----2---|----------2------|----------------||
D |--0-------------|---0------------|-0-----2---------|----------------||
A |----------------|----------------|----0------------|----------------||
E |----------------|----------------|-----------------|----------------||

E |----------------|----------------|----------------0|----------------||
B |---------3~-----|---------3------|-------------1---|----------------||
G |-----2----------|------2-----2---|----------2------|----------------||
D |--0-------------|---0------------|-0-----2---------|----------------||
A |----------------|----------------|----0------------|----------------||
E |----------------|----------------|-----------------|----------------||



Gtr 2 - Enters (1:02) , Gtr 1 stops playing.

E |----------------------------||
B |-------0--------0-----------||
G |----3--------3----3---------||
D |-6--------4---------4-------||
A |----------------------------||
E |----------------------------||  x18



E |--------------------------|------------------------||
B |----------------5---------|-7---------5------5-----||
G |-------7-----------4------|----7-------------------||
D |----9--------7--------7---|-------9------7-----7---||
A |----------0---------------|----------0-------------||
E |-7------------------------|-7----------------------||  x4

E |----------------------------||
B |-------0--------0-----------||
G |----3--------3----3---------||
D |-6--------4---------4-------||
A |----------------------------||
E |----------------------------||  x12


E |--------------------------|------------------------||
B |----------------5---------|-7---------5------5-----||
G |-------7-----------4------|----7-------------------||
D |----9--------7--------7---|-------9------7-----7---||
A |----------0---------------|----------0-------------||
E |-7------------------------|-7----------------------||   x4



VOCALS (2:25)


Gtr 3 - Enters (3:47)





    *1/2 Bend
E |----------------|----------------|----------------|----------------||
B |---6-8---9p8p6--|--6-------------|------6---8-----|8--9--8--9------||
G |-6^-------------|7---7~----------|6--7------------|----------------||
D |----------------|----------------|----------------|----------------||
A |----------------|----------------|----------------|----------------||
E |----------------|----------------|----------------|----------------||


                            *Full Bend            *1/2 Bend           
E |----------------|----------------|----------------|----------------||
B |---6------------|----------------|----------------|----------------||
G |7-----7--5--5---|0-5-7--5^-------|----------------|-5h7--10--------||
D |----------------|----------------|3-5--3---5-7--3^|----------------||
A |----------------|----------------|----------------|----------------||
E |----------------|----------------|----------------|----------------||


E |----------------|----------------|----------------|----------------||
B |----------------|----------------|----------------|----8--10--10---||
G |9--7--9--5--7--3|-5--2--3---2--3-|2--0------------|-/7-------------||
D |----------------|----------------|------2---------|----------------||
A |----------------|----------------|----------------|----------------||
E |----------------|----------------|----------------|----------------||



E |----------------|----------------|----------------|-8--10--10/13~--||
B |/11--10--8--6--5|-6-----8--------|------6--8/10---|----------------||
G |----------------|----------------|--5/7-----------|----------------||
D |----------------|----------------|----------------|----------------||
A |----------------|----------------|----------------|----------------||
E |----------------|----------------|----------------|----------------||


                                                                   *Full Bend
E |-12-10-8------8---|----------------|----------------|----------------||
B |-----------10---10|-8--13--10\8----|---8------------|----------------||
G |------------------|----------------|10----10--9h10p9|----------------||
D |------------------|----------------|----------------|10h12p10--------||
A |------------------|----------------|----------------|----------10^---||
E |------------------|----------------|----------------|----------------||



E |----------------|---------------------------------|----------------||
B |----------------|---------------------------------|----------------||
G |----------------|---------------------------------|--------------7-||
D |-----------10---|8--------------------------------|-----------7----||
A |-8---10h12----10|----7h8p7h8p7h8p7~---------------|-----7--8-------||
E |----------------|---------------------------------|-10-------------||


            *Full Bend                        *Full Bend
E |----------------|----------------|----------------|----------------||
B |----------------|----------------|----------------|----------------||
G |-9--10--12^-----|-10p9-----------|10--12--12^-----|----------------||
D |----------------|-------12-----12|----------------|----------------||
A |----------------|----------------|----------------|----------------||
E |----------------|----------------|----------------|----------------||



E |----------------|----------------|----------------|----------------||
B |-10--8----------|----------------|----------------|----------------||
G |--x-----10--12--|-9--10--7--9----|----------------|----------------||
D |--x-------------|--------------7-|----------------|----------------||
A |----------------|----------------|----------------|----------------||
E |----------------|----------------|----------------|----------------||



                                           *full Bend
E |----------------|--------------------------------|-------------------||
B |----------------|--------------------------------|-------------------||
G |----------------|----7-----9-----10---10^--10--12|14--14--14--10--10~||
D |----------------|-7-----7-----7------------------|-------------------||
A |--8-------------|--------------------------------|-------------------||
E |----------------|--------------------------------|-------------------||



                                              *1/2 Bend Up
E |----------------|------10--13--10~|---------12^--10|----10----------||
B |---------10--11-|13---------------|----------------|-13-----10~-----||
G |10~-------------|-----------------|----------------|----------------||
D |----------------|-----------------|----------------|----------------||
A |----------------|-----------------|----------------|----------------||
E |----------------|-----------------|----------------|----------------||




E |-------------------|------------------|------8---------|----------------||
B |-------------------|------------------|----------------|----------------||
G |14^--12p10p9h10h12^|-------9/10--7--9-|--10--------14--|15--12-14-10-12-||
D |-------------------|------------------|----------------|----------------||
A |-------------------|------------------|----------------|----------------||
E |-------------------|------------------|----------------|----------------||



E |----------------||
B |----------------||
G |-9-10-7--9--6~--||
D |----------------||
A |----------------||
E |----------------||


Suggest correction new What's this?
You can suggest a correction to this tab. Community and Mods will review your correction and vote to approve or reject it.
comments
print report bad tab
14 comments total. Showing first comments.
0 reply
slug 183 wrote on November 21 2006, 04:04 pm

It's a magnific tab I must say, 5 stars. Hm, but what about the few notes during the vocals?

0 reply
Barehole 16 wrote on November 29 2006, 05:37 pm

Those notes are on a Keyboard.

0 reply
outlaw metaler 2,255 wrote on July 29 2007, 03:09 pm

I think it a flute proboly played with the keyboard

guest
You may want to rate the tab now too:
select rating
Please do not post tabs as comments. Select "correction" instead!