Oops, an error
Loading. Please wait.

In My Time Of Need bass

version 1
version 1

Whole song

Interactive

by Opeth
9,065 views 9 this week
3 commentsread comments
1 2 3 4 5
x 7
add to favorites
×
Save as Personal and add changes to this tab that will be seen only by you. Learn more ›
×
You can save this tab as Personal to edit and correct it or add notes. All changes will be seen only by you. Learn more »
launch autoscroll
font size
0
reset
guitar tuner
backing track
0:00
0:00
edit
Autoscroll
slow
fast
+/-
esc
set tempo
stop
Author
and:  Opeth
Album: Damnation
Song:  In My Time Of Need


.  - Fret higher than 9  /  - slide up to
\  - slide down to       ~  - vibrato
h  - hammer on           b  - Bend
p  - pull off            Suffixes for bend
t  - tap                 f  - full bend    h - half bend
ph - pinched harmonic    q  - quarter bend t - tap bend
*  - see comment         ^  - Hold bend    r release bend
x  - Stuccatto           ~  - vibrato bend
,  - slight palm mute    () - ghost note, sustained note
"  - tremolo note        <> - Trill


Standard Tunning E A D G



G|------------|------------|--------------|------------|
D|------------|------------|--------------|------------|
A|------------|------------|-----------5h7|------------|
E|0~---00-0~--|0~---00-0~--|0~---00-0~----|5~---x5-5~--|



G|------------|------------|--------------|------------|
D|------------|------------|--------------|------------|
A|------------|------------|--------------|------------|
E|0~---00-0~--|0~---00-0~--|0~---00-0~-5h7|5~---x5-5~--|



G|------------|------------|------------|-------------------------------------|
D|------------|------------|------------|-------------------------------------|
A|4~---x4-4~--|------------|------------|1---x1-1~---/13~--131516~-1513--13~--|
E|------------|7~---0707~--|5~---x5-5~--|------------------------------16-----|
                                                      -    - - -   - - - -


G|--------------|------------|-----------------|-------------------|
D|--------------|------------|-----------------|-------------------|
A|-----------5h7|------------|-----------------|-------------5h7~--|
E|0~---x0-0~----|7~---x7-7~--|5~-5~-05/7\5~--\-|0~-0~-2~-0~--------|



G|----------------------|------------|---------------|-----------------|
D|-------5--------------|------------|---------------|----2------------|
A|-----57-7~-7~-(7~)-5~-|------------|---------------|---2-------------|
E|0~--------------------|7~---x7-7~--|5~-5~-0505~--\-|0~----2~--0~--2~-|



G|------------|------------|--------------|----------------|
D|------------|------------|--------------|----------------|
A|------------|------------|--------------|----------------|
E|0~---00-0~--|0~---00-0~--|0~---00-0~-5h7|5~---5-5~--353~-|



G|-------------|-------------|------------|-------------------------------|
D|-------------|-------------|------------|----------------------------6--|
A|-------------|-------------|------------|-----------------------6~--8-86|
E|9~---x9-9~-\-|7~---0707~-\-|5~---x5-5~--|6~-6~-6~-6~---6~-8~-9~---------|



G|----------------------|------------|-----------------|--------------------|
D|----------------------|------------|-----------------|----2---------------|
A|7~--------7~-7~-7~-5h7|------------|-----------------|---2----------5h7~--|
E|----00~--0------------|7~---x7-7~--|5~-5~-05/7\5~--\-|0~----2~--0~--------|



G|----------------------|------------|---------------|-----------------|
D|-------5--------------|------------|---------------|----2------------|
A|-----57-7~-7~-(7~)-5~-|------------|---------------|---2-------------|
E|0~--------------------|7~---x7-7~--|5~-5~-0505~--\-|0~----2~--0~--0~-|



G|-------------------|-------------------|-------------------|---------------|
D|-------------------|-------------------|-------------------|----5---6~-----|
A|-------------------|-------------------|-------------------|3~---3~-4~-----|
E|5~--55~-6~-6~-6~---|5~---5~-6~-6~-6~---|5~---5~-6~-6~-6~---|---------------|



G|----------------|----------------|----------------|---------------|
D|----------------|----------------|----------------|----5---6~-----|
A|----------------|----------------|----------------|3~---3~-4~-----|
E|5~---5~-6~------|5~---5~-6~------|5~---5~-6~------|---------------|



G|------------|------------|--------------|---------------|
D|------------|------------|--------------|---------------|
A|------------|------------|--------------|---------------|
E|0~---x0-0~--|0~---x0-0~--|0~---x0-0~-5h7|5~---x5-5~--535|



G|------------|------------|--------------|------------|
D|------------|------------|--------------|------------|
A|------------|------------|--------------|------------|
E|0~---x0-0~--|0~---x0-0~--|0~---x0-0~-5h7|5~---x5-5~--|



G|------------|------------|------------|----------------------------------|
D|------------|------------|------------|----------------------------------|
A|4~---x4-4~--|------------|------------|1~---x1-1~---/13~--13~--13~--13\--|
E|------------|7~---0707~--|5~---x5-5~--|----------------------------------|



G|---------------------|---------------|-----------------|---------------------|
D|---------------------|---------------|-----------------|----2----------------|
A|-----7~--7~-7~-7~-5~-|---------------|-----------------|---2----------5h77~--|
E|0~--0----------------|7~---x7-7~-7~--|5~---05/7\5~--5\-|0~----2~--0~---------|



G|--------------------|--------------|----------------|--------------------|
D|-------5------------|--------------|----------------|----2---------------|
A|-----57-7~-7~-7~-5~-|--------------|----------------|---2----------5h7~--|
E|0~------------------|7~---x7-7~-7~-|5~---0505~-5~-\-|0~----2~--0~--------|



G|---------------------|--------------|----------------------|
D|---------------------|--------------|----------------------|
A|----5h7777~-7~-7~-5~-|--------------|----------------------|
E|0~-------------------|7~---x7-7~-7~-|5~--5~--05/7\5~-5~-3\2|



---------------------|
----2----------------|
---2----------5h77~--|
0~----2~--0~---------|




G|--------------------|--------------|-------------------|--------------------|
D|-------5------------|--------------|-------------------|--------------------|
A|-----57-7~-7~-7~-5~-|--------------|-------------------|--------------------|
E|0~------------------|7~---x7-7~-7~-|5~--5~-0505~-5~-3\2|0~--0~--2~--0~--2~--|



G|--------------------|--------------|------------------|---------------------|
D|-------5------------|--------------|------------------|----2----------------|
A|-----57-7~-7~-7~-5~-|--------------|------------------|---2----------5h77~--|
E|0~------------------|7~---x7-7~-7~-|5~---05/7\5~-5~-3-|0~----2~--0~---------|



G|---------------------|--------------|--------------------|------------------|
D|---------------------|--------------|--------------------|----2-------------|
A|----5h7777~-7~-7~-5~-|--------------|--------------------|---2--------------|
E|0~-------------------|7~---x7-7~-7~-|5~--5~--0505~-5~-3\2|0~----2~--0~--2~--|

            
            
Suggest correction
Creating personal tab
Creating personal tab
You can edit any tab online and save it as your Personal.

You can edit, replace or remove any tab part or add personal notes – all changes will be seen only by you.

Personal tabs can be accessed anytime from any device, even offline.
Learn more »
comments
print report bad tab
3 comments total.
-2 reply
xX_KsE_Xx 10 May 27, 2006 08:43 AM

BIG LEGEND DUMBASS!

0 reply
jesusgonewrong 71 Jul 23, 2006 12:59 AM

I think you got a few of the parts the wrong way round, mainly right though.

0 reply
metabolic666 71 Apr 01, 2008 06:19 PM

great song pretty good tab. it sounds great on a fretless

guest
You may want to rate the tab now too:
select rating
Wanna post a correction for this tab? Suggest correction