Oops, an error
Loading. Please wait.

In The Mist She Was Standing Tab

version 1
version 1

Whole song

Interactive

5,993 views 15 this week
3 commentsread comments
1 2 3 4 5
please rate
add to favorites
launch autoscroll
font size
0
reset
how to read this tab
guitar tuner
Tab Pro tools
  • play this tab
  • loop segment
  • change instrument
  • show fretboard
  • metronome
×
Best way to learn
"In The Mist She Was Standing"
Autoscroll
slow
fast
+/-
esc
set tempo
stop
OPETH- IN THE MIST SHE WAS STANDING (ACOUSTIC)
>From the Album ORCHID
Copyright 1997 Candlelight Records

Check out Opeth's Domain, the only place to find Opeth tabs:
               http://darkwood.com/opeth/

Tuning: E (EADGBE)

3:44-3:47
|-----|
|-8---|
|-9---|
|-9---|
|-----|
|-----|

3:47-4:14 and 5:08-5:31                                     5:28-5:31 (slow)
|-------------------------------------------------|--------------|
|---5---5--5---5---5---5--5---5---5--5---5---5--5-|--------------|
|-------------------------------------------------|-----5-------5|
|--9---9------7---7---7------7---7------7---7-----|--------------|
|-7---7---7--5---5---5------0---0------0---0---0--|---7---7---7--|
|------------------------6----------6-------------|-0-------0----|

5:34-5:57 (GTR 1) x2
|---------------------7-------------------------------7----------|
|-7---7---7---7---8-------7---8---7---7---7---7---8-------7---8--|
|--9---9---9---9---9---9---9---9---9---9---9---9---9---9---9---7-|
|---9---9---9---9---9---9---9---9---9---9---9---9---9---9---9---7|
|----------------------------------------------------------------|
|----------------------------------------------------------------|
5:34 (GTR2)                     5:40            5:45          5:51
|-2--------------------------------------------------------------|
|-0----------------------------------------------13--------------|
|-0-------------------------------0--------------11-------------0|
|-2-------------------------------2--------------10-------------9|
|-2-------------------------------2-----------------------------7|
|-0--------------------------------------------------------------|

5:57-6:20 (GTR 1) x2
|---------------------5------------------------------5-----------|
|-5---5---5---5---6-------5---6---5---5---5---5---6-------5---6--|
|--7---7---7---7---7---7---7---7---7---7---7---7---7---7---7---7-|
|---7---7---7---7---7---7---7---7---7---7---7---7---7---7---7---7|
|----------------------------------------------------------------|
|----------------------------------------------------------------|
5:57 (GTR 2)                    6:03                          6:09
|----------------------------------------------------------------|
|-0--------------------------------------------------------------|
|-4-------------------------------0-----------------------------0|
|-7-------------------------------9-----------------------------9|
|-5-------------------------------7-----------------------------7|
|----------------------------------------------------------------|

6:14-6:20 (GTR) x1
|---------------------3-------------------|
|-3---3---3---3---4-------3---4-----------|
|--5---5---5---5---5---5---5---5----------|
|---5---5---5---5---5---5---5---5---------|
|-----------------------------------------|
|-----------------------------------------|
6:14 (GTR 2)
|-----------------------------------------|
|-----------------------------------------|
|-2---------------------------------------|
|-3---------------------------------------|
|-5---------------------------------------|
|-----------------------------------------|

6:20-6:26 (GTR1) x1
|---------------------2-------------------|
|-2---2---2---2---3-------2---3-----------|
|--4---4---4---4---4---4---4---4----------|
|---4---4---4---4---4---4---4---4---------|
|-----------------------------------------|
|-----------------------------------------|
6:20 (GTR 2)                      6:26
|-----------------------------------------|
|-----------------------------------------|
|-4--------------------------------9------|
|-5--------------------------------10-----|
|-7--------------------------------12-----|
|-----------------------------------------|

6:26-6:32
|----------------------7----7--|
|-7---7---7---7-------8-8---8--|
|--9---9---9---9-----9---9--9--|
|---9---9---9---9---9-----9-9--|
|------------------7--------7--|
|-----------------0------------|

6:34-7:14 (GTR 1) x12
|-------------------|-7-|
|-------------------|-8-|
|-------------------|-9-|
|-7/8-7-------------|---|
|-------7-66770-----|---|
|--------------0----|---|
7:12-7:14 (GTR 2) x1
|-------------------|
|-------------------|
|-9/10 10-----------|
|--------9-8899-----|
|--------------0----|
|---------------0---|

10:44-11:13 (GTR 1)
|-0--------|
|-----0----|
|---5------|
|-------7--|
|----------|
|----------|
10:54-10:59 10:59-11:08      11:10 (GTR 2)
|-------0--|--------------0-|--------------|
|---0------|-----0------0---|--------------|
|-----5----|---5------5-----|--------------|
|-7--------|-5------0-------|--------------|
|----------|----------------|--------------|
|----------|----------------|--------------|
|----------|----------------|-5-7-8-10-12~-|

11:13-11:28 (GTR 1)
|---------------------------------------------------------|
|-3--31-------------------------------------------3-------|
|---2--2------------------/(10)97-55-57-79-(10)97--2------|
|--3----1---------5/7-------------------------------3-5-3-|
|--------8-7-0000----57833------------------------------5-|
|---------------------------------------------------------|
11:13-11:28 (GTR 2)
|---------------------------------------------------------|
|-3--31-----023/5---------/(10)977------------------------|
|---2-------------5/75/33/2--------9-1010 1212-12-7-------|
|--3-----0/3---------------------------------------7-3-2-3|
|---------------------------------------------------------|
|---------------------------------------------------------|
2nd Endings 11:37-11:39
(GTR 1)     (GTR 2)
|--------13-|----------|
|---15---15-|----------|
|-14--14-14-|-7--------|
|-----------|--7-3-2-3-|
|-----------|----------|
|-----------|----------|


Check out Opeth's Domain, the only place to find Opeth tabs:
               http://darkwood.com/opeth/
comments
We did not receive enough feedback on this tab! Please rate:
print report bad tab
1 2 3 4 5
3 comments total.
0 reply
bokma wrote on October 13 2007, 11:08 pm

wheres the first 3 minutes and 44 seconds????????????? =(

0 reply
FunkyMetalHead wrote on May 17 2009, 03:08 am

Wait, wasn't Orchid released in 1995?

0 reply
ERICtheBERIC wrote on January 6 2010, 02:14 am

what a rip off, i wanna know how to play the first 2 riffs

I want to post or [tab]
guest
You may want to rate the tab now too:
select rating
Please do not post tabs as comments. Select "correction" instead!