Oops, an error
Loading. Please wait.

Isolation Years Tab

version 1
version 1

Whole song

Interactive

16,863 views 48 this week
4 commentsread comments
1 2 3 4 5
accurate
x 4
add to favorites
launch autoscroll
font size
0
reset
how to read this tab
guitar tuner
Tab Pro tools
  • play this tab
  • loop segment
  • change instrument
  • show fretboard
  • metronome
Autoscroll
slow
fast
+/-
esc
set tempo
stop
Contributor
Difficulty
intermediate
Isolation years - opeth
all guitars tuned DADFAD

intro 5/8 tempo = 150

play twice
|-3h5---5-3h5---5--3h5---5-3h5------0-2-------2---2--0h2---------2------|
|-----0-------0--------0-------0--------0---3---3--------0---0h3---(3)--|
|--------------------------------0--------0----------------0------------|
|-----------------------------------------------------------------------|
|-----------------------------------------------------------------------|
|-----------------------------------------------------------------------|

6/8
|-----2------------|----------------|
|---3---3---1-0-1--|-0h1p0h1p0h1p0--|
|-2-------0--------|----------------|
|------------------|-2h3p2h3p2h3p2--|
|------------------|----------------|
|------------------|----------------|

Guitar solo 5/8
|-3-5---5-3h5---5-|-3h5---5-3h5------|-0-2------2---2---|-0h2---------2----|
|-----0-------0---|-----0-------0----|--------3---3-----|-----0---0h3---(3)|
|-----------------|---------------0--|------0-----------|-------0----------|
|-----------------|------------------|------------------|------------------|
|-----------------|------------------|------------------|------------------|
|-----------------|------------------|------------------|------------------|
|
|  ~~~~~~~~~~~~~~~~~~~~~~~~~~~~~                          ~~~~~~~~~~~~~~~~~
|-----------------|------------------|------------------|------------------|
|-12--------------|------------------|-12-10-----10-----|------------------|
|-----------------|------------------|--------11-----9--|-11---------------|
|-----------------|---------------x--|------------------|------------------|
|-----------------|-------------x----|------------------|------------------|
|-----------------|------------------|------------------|------------------|

5/8
|-3-5---5-3h5---5-|-3h5---5-3h5------|-0-2------2---2---|-0h2---------2----|
|-----0-------0---|-----0-------0----|--------3---3-----|-----0---0h3---(3)|
|-----------------|---------------0--|------0-----------|-------0----------|
|-----------------|------------------|------------------|------------------|
|-----------------|------------------|------------------|------------------|
|-----------------|------------------|------------------|------------------|
|                  
|                                                         ~~~~~~~~~~~~~~~~~
|-----------------|------------------|------------------|------------------|
|-----------------|--------8/10-10/12|------------------|------------------|
|-----------------|-8h9-11-----------|--12-12/11--------|-9----------------|    
|-------------8p7-|------------------|------------------|------------------|
|-----------------|------------------|------------------|------------------|
|-----------------|------------------|------------------|------------------|

6/8
|-----2-----------|------------------|
|---3---3---1-0-1-|-0h1p0h1p0h1p0----|
|-2-------0-------|------------------|
|-----------------|------------------|
|-----------------|------------------|
|-----------------|------------------|
|
|
|-----------------|------------------|
|-----------------|------------------|
|-----------------|------------------|
|------------3h5--|--5//7------------|
|-----------------|------------------|
|-----------------|------------------|

BAND ENTERS
5/8 play twice
|-3h5---5-3h5---5--3h5---5-3h5------0-2-------2---2--0h2---------2------|
|-----0-------0--------0-------0--------0---3---3--------0---0h3---(3)--|
|--------------------------------0--------0----------------0------------|
|-----------------------------------------------------------------------|
|-----------------------------------------------------------------------|
|-----------------------------------------------------------------------|

6/8
|-----2-----------|------------------|
|---3---3---1-0-1-|-0h1p0h1p0h1p0----|
|-2-------0-------|------------------|
|-----------------|------------------|
|-----------------|------------------|
|-----------------|------------------|

VERSE 
6/4 play twice
|--------------------------7---------|----------------------------------|
|-------0---0----------0-------------|-------0---0---------0---0--------|
|---6h7---7--------------2-----------|---6h7---7------------------------|
|------------------0h2-------0h2-2---|-----------------0h5---5---0h2-2--|
|-0--------------0-------------------|-0-------------0------------------|
|------------------------------------|----------------------------------|

PRE CHORUS 
3/8              6/8
|--------2------|------0--------0------|--------------------------|
|-0--------0----|----------------------|-3h5p3p0-------0----------|
|---0--------4--|----------------------|---------0h2/4---0-----0--|
|-----3---------|----------------------|-------------------0h2----|
|---------------|----------------------|--------------------------|
|---------------|----------------------|--------------------------|

3/8              6/8
|--------2------|---0------------------|--------------------------|
|-0--------0----|------------3---------|--5-----------7-----------|
|---0--------4--|----------------------|--------------------------|
|-----3---------|----------------------|--------------------------|
|---------------|----------------------|--------------------------|
|---------------|----------------------|--------------------------|
|
|
|---------------|--15------------------|-(15)\\\\\\\\\\\\\\\\\\\--|
|---------------|--17------------------|-(17)\\\\\\\\\\\\\\\\\\\--|
|---------------|--16------------------|-(16)\\\\\\\\\\\\\\\\\\\--|
|---------------|--15------------------|-(15)\\\\\\\\\\\\\\\\\\\--|
|---------------|----------------------|--------------------------|
|---------------|----------------------|--------------------------|

CHORUS
4/4 (lol at last regular timing) play twice
|-----7-----------7--|-----7-----------7--|-----7-------7-----|-----7-------7------|
|---8---8---8---8----|---8---8---8---8----|---8---8---8-------|---8---8---8---8----|
|-9-----------9------|-9-----------9------|-8-------8---------|-8-------8-------8--|
|---------0----------|---------0----------|-------------------|--------------------|
|--------------------|--------------------|-------------------|--------------------|
|--------------------|--------------------|-------------------|--------------------|
|
|
|-12-----------------|-(12)----/15---(15)\|-11----------------|----(11)/15---(15)\\|
|-12-----------------|-(12)----/17---(17)\|-12----------------|----(12)/16---(16)\\|
|-12-----------------|-(12)----/16---(16)\|-12----------------|----(12)/16---(16)\\|
|-12-----------------|-(12)----/15---(15)\|-11----------------|----(11)/15---(15)\\|
|--------------------|--------------------|-------------------|--------------------|
|--------------------|--------------------|-------------------|--------------------|

|-----7-------7------|-----7-------7------|----0----0---------|--------------------|
|---8---8---8-7------|---8---8---8-7------|--10---10--7--7-7--|---7--7-7-----------|
|-7-------7----------|-7-------7----------|-6----6---6--6-----|-6--6---------------|
|--------------------|--------------------|-------------------|----------3---5-----|
|--------------------|--------------------|-------------------|--------------------|
|--------------------|--------------------|-------------------|--------------------|
|
|
|-10-----------------|----(10)/15----(15)\|-------------------|--------------------|
|-12-----------------|----(12)/15----(15)\|-10----------------|--------------(10)\\|
|-12-----------------|----(12)/16----(16)\|--9----------------|--------------(10)\\|
|-10-----------------|----(10)/15----(15)\|--9----------------|---------------(9)\\|
|--------------------|--------------------|-------------------|--------------------|
|--------------------|--------------------|-------------------|--------------------|

|------0-------3-----|--------------------|
|----1---1---1-------|--------------------|
|----------0---------|-0------------------|
|--------------------|--------------------|
|-1------------------|--------------------|
|--------------------|--------------------|
|
|
|-12-----------------|------------(12)\\\\|
|-8------------------|------------(8)\\\\\|
|-9------------------|------------(9)\\\\\|
|-8------------------|------------(8)\\\\\|
|--------------------|--------------------|
|--------------------|--------------------|

then intro riff but slide last chord of chorus to the chord below and fade 
it over intro riff
|-19--|
|-20--|
|-21--|
|-19--|
|-----|
|-----|

Verse twice
prechorus
chorus

OUTRO
5/8
|-3h5---5-3h5---5-|
|-----0-------0---|
|-----------------|
|-----------------|
|-----------------|
|-----------------|




comments
print report bad tab
4 comments total. Showing first comments.
0 reply
von demon wrote on August 24 2007, 12:04 pm

Great song. Good work on the tab. Love, Opeth fangirl.

0 reply
uk.mace wrote on July 3 2008, 09:21 am

It's tuned to DADFAE btw. Opeth said so

+1 reply
2020vision wrote on February 4 2009, 11:49 am

chorus is in 3/4 isnt it?

I want to post or [tab]
guest
You may want to rate the tab now too:
select rating
Please do not post tabs as comments. Select "correction" instead!