Oops, an error
Loading. Please wait.

Leper Affinity Tab

version 2
version 2

Solo

Whole song

3,134 views 9 this week
no commentswrite comment
1 2 3 4 5
accurate
x 3
add to favorites
launch autoscroll
font size
0
reset
how to read this tab
guitar tuner
Tab Pro tools
  • play this tab
  • loop segment
  • change instrument
  • show fretboard
  • metronome
Autoscroll
slow
fast
+/-
esc
set tempo
stop
Contributor
Note: I tabbed down the first solo only as there are some correct versions already 
for the 2nd (e.g. in the Guitar Pro tab, ver2).
I made this tablature using and comparing the studio (Blackwater Park) _and_ the live 
record, so this should be like 99% correct.

Gtr 1 - Solo

                                         |--3--|
     Q.                     E  E   E     S  S  S  S S  S S  S Q     S
E||-----------------------------------|-------------------------------|
B||-----------------------------------|-------------------------------|
G||--9~---------------------9--7------|--7h-9p-7----7-----------------|
D||-------------------------------10--|----------10---10-9-10-9~----L-|
A||-----------------------------------|-------------------------------|
E||-----------------------------------|-------------------------------|


  PM PM  PMPM PM
                     |---3---|
  S  S   S S  S   S  S   S   S S  S  S S     S  S  S  S  S  S  Q.
-----------------------------------------|-----------------10-11b------|
-----------------------------------------|--------10-12-13-------------|
--------------9--11-11h-12p-11-9-11----9-|--11-12----------------------|
-----------9------------------------12---|-----------------------------|
--7--9--10-------------------------------|-----------------------------|
-----------------------------------------|-----------------------------|


                                                     PM  PMPM  PMPM
   |---3---|                            |---3---|
   S   S   S  S  S  Q        S  E.      S   S   S  S S   S S   S S   Q
------------------------------------|--------------------------------------|
--12h-15p-12----12-12brb-----L------|--------------------------------------|
-------------14----------------12---|--11h-12p-11-11-----------------------|
------------------------------------|----------------9---------------------|
------------------------------------|-------------------10-9-----9--10~----|
------------------------------------|-------------------------12-----------|


                |---3---|
  E   E   S  S  S   S   S  S  S  S S     S S  S  S  S  S  S  S S  S S  S
-------------------------------------|-----------------------------------|
-------------------------------------|-----------------------------------|
--9----------------------------------|-----------------------------------|
-----12------------------------------|-------------------------9-12-9-12-|
---------12-10-12h-14p-12-10-12-10-9-|--10-9-------10----10-12-----------|
-------------------------------------|-------10-12----12-----------------|


                                        PH
  S  S  S  S  S  S Q.         Q.        Q.        S   S  S E  S  Q.
---------------------------|-------------------|-------------------------|
----------13-12-10---------|-------------------|-------------------------|
--9-11-12----------9~------|-------------------|-------------------------|
---------------------------|--9b--------9~-----|--9--10--9-7--9-10~------|
---------------------------|-------------------|-------------------------|
---------------------------|-------------------|-------------------------|


   S  S  S  S  S  S  S  S  S  E.      E   Q      Q        S  S
-----------------14-15-14-12-------|---------------------12-14-|
--------17----17-------------12~---|--L--15b----15brb----------|
-----16----16----------------------|---------------------------|
--14-------------------------------|---------------------------|
-----------------------------------|---------------------------|
-----------------------------------|---------------------------|


      |---3---|  |---3---|                           |--3--|
   S  S   S   S  S   S   S  S  E.   E.      E   E    S  S  Q     Q
--15-14h-15p-14-12h-14p-12---------------|----------------------------|
---------------------------15------------|-----12----L----------------|
------------------------------14---12~---|--L--14b--14-12-------------|
-----------------------------------------|----------------14----10----|
-----------------------------------------|----------------------------|
-----------------------------------------|----------------------------|

Gtr 1 - Break

   W                 E
------------------------||
------------------------||
--14~----------------L--||
------------------------||
------------------------||
------------------------||

Gtr 2 - Break

     S S S S S S S S S S S S  S  S  S  S S  S    H.
E||------------------------7-10-13-10---------|---------------||
B||--------------------6-9------------12-9----|---------------||
G||----------------4-7---------------------10-|--7------------||
D||------------3-6----------------------------|---------------||
A||--------2-5--------------------------------|---------------||
E||--0-1-4------------------------------------|---------------||

Gtr 3 - Break

      S  S  S  S  S S  S S  S S  S S  S S S S S S    H.
E||--13-10----10----------------------------------|---------------||
B||--------12----12-9-12-9----9-------------------|---------------||
G||------------------------10---10-7-10-7---7-----|---------------||
D||---------------------------------------9---9-6-|---------------||
A||-----------------------------------------------|--8------------||
E||-----------------------------------------------|---------------||

Duration Legend
---------------
W - whole
H - half
Q - quarter
E - 8th
S - 16th
T - 32nd
X - 64th
. - note dotted
|-n-|  - n-tuplets


Tablature Legend
----------------
L - tied note
x - dead note
PH - pitch harmonic
h - hammer on
p - pull off
b - bend
br - bendRelease
pb - preBend
pbr - preBendRelease
brb - bendReleaseBend
~ - vibrato
T - tapping
comments
We did not receive enough feedback on this tab! Please rate:
print report bad tab
1 2 3 4 5
I want to post or [tab]
guest
You may want to rate the tab now too:
select rating
Please do not post tabs as comments. Select "correction" instead!