Oops, an error
Loading. Please wait.

Masters Apprentice Tab

2,475 views 3 this week
1 commentread comment
1 2 3 4 5
worth learning
x 6
add to favorites
launch autoscroll
font size
0
reset
how to read this tab
guitar tuner
Tab Pro tools
  • play this tab
  • loop segment
  • change instrument
  • show fretboard
  • metronome
Autoscroll
slow
fast
+/-
esc
set tempo
stop
Opeth
Master's Apprentice
Diliverance
Standard Tuning

e--------------------------------------------------|
b--------------------------------------------------|
g--------------------------------------------------|
d--3----2--2-2-2-2--3--2----6--7-------------------|
a--3----2--2-2-2-2--3--2----6--7-------------------|
e--1----0--0-0-0-0--1--0----4--5-------------------|

e--------------------------------------------------|
b--------------------------------------------------|
g--------------------------------------------------|
d--3----2--2-2-2-2--3--2----6--7---10--------------|
a--3----2--2-2-2-2--3--2----6--7---10--------------|
e--1----0--0-0-0-0--1--0----4--5---8---------------|

Listen to the song to figure out the rythem and # of repeats

I'll have more soon  Enjoy!
comments
print report bad tab
1 comment total.
0 reply
Ashratempel wrote on January 21 2016, 09:07 am

This tab is 100% right.
Source: Opeth live videos on youtube.

Riff 1 (Intro & Verse)

|-------------------------------------|
|-------------------------------------|
|-------------------------------------|
|-3--2---x--2--2--2--2--3-----/6--7---|
|-3--2---x--2--2--2--2--3-------------|
|-1--0---x--0--0--0--0--1--0--/4--5---|


|---------------------------------------------------|
|---------------------------------------------------|
|---------------------------------------------------|
|-2-2---3--2---x--2--2--2--2--3-------6--7--10--2-2-|
|-2-2---3--2---x--2--2--2--2--3-----------------2-2-|
|-0-0---1--0---x--0--0--0--0--1--0---/4--5--8---0-0-|

Riff 2 ("The sickness in me...")

|----------------------------------------------------------------|
|----------------------------------------------------------------|
|----------------------------------------------------------------|
|-9--9---9-x--9--9---9-x--9--9---9-x--7\6-6-6--15-15-15-15-15-15-| 4x
|-9--9---9-x--9--9---9-x--9--9---9-x--7\6-6-6--------------------|
|-7--7---7-x--7--7---7-x--7--7---7-x--5\4-4-4--13-13-13-13-13-13-|

Riff 3 ("There is a home I am deserting...")

|----------------------------------------------------------|
|----------------------------------------------------------|
|----------------------------------------------------------|
|-3--2---x--2--2--2--2-------------------------------------|x1
|-3--2---x--2--2--2--2----------------6--------6-----------|
|-1--0---x--0--0--0--0--1--0--1/4--5-----0--8-----5--------|

Riff 4 ("Death!...")

(Mikael)
|----------------------------------------------------------|
|----------------------------------------------------------|
|----------------------------------------------------------|
|----------------------------------------------------------|
|---------------------------------8-----6/5----------------|
|-1--0--0-0--3--4--0-3-4-6-7--6-7---6-7------7-6-3h6--0----|

(Peter)(Play the first time like Mikael, then play as written down below)
|-----------------------------------------------------------|
|-----------------------------------------------------------|
|-----------------------------------------------------------|
|-----------------------------------------------------------|
|---------------------------------8-----6/5-----------------|
|-4--0--0-0--3--4--0-3-4-6-7--6-7---6-7-------7-6-3h6--0----|

Riff 5 (Both guitars)

|----------------------------------------------------------------|
|----------------------------------------------------------------|
|----------------------------------------------------------------|
|------------2-----2------6---6---------------------6------------|
|-/7-6-------2-----2--------0---0--/7-6-------------------5------|
|-/8-7--0-0--0--0--0--3/4----------/8-7--0-0--/6--5---5/4---4/3--|

Riff 6

(Peter) ("I hold my breath and wait")
|-----------------------------------------------------------|
|-----------------------------------------------------------|
|-----------------------------------------------------------|
|----------------------------------------------6--9--12-----|4x
|-2-2-2--2-2--2-2--2-2---2-1-0------------------------------|
|-0-0-0--0-0--0-0--0-0----------1--0--/6--0-0--4--7--10-----|

BACKBEAT LEAD (Mikael)
|-----------------------------------------|
|-----------------------------------------|
|-----------------------------------------|2x
|-------6-----9--7-----7------------------|
|-7--8-----7--------8------8--7--6--7-----|
|--------------------------------------7--|

Riff 7 (Both guitars)
|-----------------------------------------------|
|-----------------------------------------------|
|-----------------------------------------------|
|-5-5--7-7-7--9-9-9--10-10-10--12-12-12--13-14--|1x
|-----------------------------------------------|
|-3-3--5-5-5--7-7-7--8--8--8---10-10-10--11-12--|

Riff 8 ("Soothing trance...")

Chords in order:

Am: x02210

B11: x21200

Am(add9)/F: xx4500

Csus11: x33500

F: 133211

Riff 9 ("In a motionless scene...")

Dm (x57760)

Ddim (xx6760)

Fade out on x097xx at "In too..."

Riff 10 "...death..." (Play these two chords only once)

Aadd9 (x07600)

Em (x75000)

Am9 (x07500)

Em (x75000)

Riff 11 ("Every wretched dream I have left behind...")

Am (x07570)

C#m (x46650)

Riff 12 ("Once I'm below there's no turnin' back...")

Bm (x24430)

Bm/A (x04430)

F# (244322)

Riff 13 ("Back...")

G#m (466444)

Em9 (024000)

Riff 14 LAST TIME

Peter:

G#m (466444)

F# (244322)

Mikael:

G#m (466444)

G#5/E (044xxx)

F# (998xxx)

Riff 15 ("Aaaaaaaaa-ah")

Badd11(799800)

Aadd9 (577600)

Riff 16 ("Every wretched dream I have left behind..")

Am (577555)

C#9 (x468xx)

C#m (x46650)

Riff 17 (Both guitars)

|------------------------------|
|------------------------------|
|------------------------------|
|-4----4----4----4----4----4---|
|-3----3----3----3----3----3---|
|------------------------------|

Riff 18 (Both guitars)

|----------------

I want to post or [tab]
guest
You may want to rate the tab now too:
select rating
Please do not post tabs as comments. Select "correction" instead!