Oops, an error
Loading. Please wait.

Masters Apprentices Tab

version 1
version 1

Whole song

Interactive

46,798 views 66 this week
10 commentsread comments
1 2 3 4 5
x 13
add to favorites
launch autoscroll
font size
0
reset
how to read this tab
guitar tuner
×
Best way to learn
"Masters Apprentices"
Autoscroll
slow
fast
+/-
esc
set tempo
stop
Masters apprentices
By : Opeth
Album : Deliverance
Transcribed by: Alvaro Ramirez
Email me for any corrections or comments.  lazyguitarist@musician.net
Tune guitar to (EADGBE)

[Intro]

e|-------------------------------------|
B|-------------------------------------|
G|-------------------------------------|
D|-3--2---x--2--2--2--2----------------|
A|-3--2---x--2--2--2--2----------------|
E|-1--0---x--0--0--0--0--1--0--1/4--5--|
            .  .  .  .

e|---------------------------------------------|
B|---------------------------------------------|
G|---------------------------------------------|
D|-2-2---3--2---x--2--2--2--2------------------|
A|-2-2---3--2---x--2--2--2--2------------------|
E|-0-0---1--0---x--0--0--0--0--1--0--1/4--5--8-|(x2)
  . .             .  .  .  .

[Riff 1]

e|------------------------------------------|
B|------------------------------------------| repeat riff 1
G|------------------------------------------| and 2 several times
D|-2-2--3--2---x--2--2--2--2----------------|
A|-2-2--3--2---x--2--2--2--2----------------|
E|-0-0--1--0---x--0--0--0--0--1--0--1/4--5--|
                 .  .  .  .

[Riff 2]

e|---------------------------------------------|
B|---------------------------------------------|
G|---------------------------------------------|
D|-2-2---3--2---x--2--2--2--2------------------|
A|-2-2---3--2---x--2--2--2--2------------------|
E|-0-0---1--0---x--0--0--0--0--1--0--1/4--5--8-|
  . .             .  .  .  .

[Riff 3]

e|----------------------------------------------------------------|
B|----------------------------------------------------------------|
G|----------------------------------------------10-10-10-10-10-10-|
D|-9--9---9-x--9--9---9-x--9--9---9-x--7-7\6-6--10-10-10-10-10-10-|
A|-9--9---9-x--9--9---9-x--9--9---9-x--7-7\6-6--8--8--8--8--8--8--|
E|-7--7---7-x--7--7---7-x--7--7---7-x--5-5\4-4--------------------|(x4)


Go back to riff 1 and 2 and repeat several times


e|-----------------------------------------------------------|
B|-----------------------------------------------------------|
G|-----------------------------------------------------------|
D|-2-2--3--2---x--2--2--2--2---------------------------------|
A|-2-2--3--2---x--2--2--2--2----------------7-----5--6--5----|
E|-0-0--1--0---x--0--0--0--0--1--0--1/4--5-----5-----------5-|
  . .            .  .  .  .

 Riff 4 both guitars
e|-----------------------------------------------------------|
B|-----------------------------------------------------------|
G|-----------------------------------------------------------|
D|-----------------------------------------------------------|
A|---------------------------------8-----6\5-----------ph----|
E|-1--0--0-0--3--4--0--4--6--7--7-----5-------5--6--5--3-----|
        . .                    .     .

 Riff 5 both guitars
e|-----------------------------------------------------------|
B|-----------------------------------------------------------|
G|-----------------------------------------------------------|
D|-----------------------------------------------------------|
A|------------------------------8-----6\5-----------ph-------|
E|-0--0-0--3--4--0--4--6--7--7-----5-------5--6--5--3--------|(x3)
     . .                    .     .


 Riff 6 this riff is done 6 x . but the first time one guitar. then 2.
e|------------------------------------------------------------|
B|------------------------------------------------------------|
G|------------------------------------------------------------|
D|------------2-----2----6-6----------------------------------|
A|-/7-6-------2-----2----x-x-----/7-6-------------------------|
E|-/8-7--0-0--0--0--0--3-4-4--0--/8-7--0-0--/6--5--4--4--6--0-|
        . .     .                     . .

 Riff 7a  guitar 1 (mikael)
e|--------------------------------------|
B|--------------------------------------|
G|--------------------------------------|
D|-------6-----9--7-----6---------------|
A|-7--8-----8--------8------8--7--6~----|
E|-----------------------------------7h-|(x2)


 Riff 7b guitar 2 (peter)
e|------------------------------------------|
B|------------------------------------------|
G|------------------------------------------|
D|------------------------------------------|
A|-2-2-2--2-2--2-2-2--------1b------0--2--5-|
E|-0-0-0--0-0--0-0-0--1--0-----0-0----------|(x4)
  . . .  . .  . . .           . .

go back and do riff 6 four times

go back and do riff 7a two times and do riff
7b 3 times but on the 4th time both guitars do riff 8


 Riff 8 both guitars
e|--------------------------------------------------|
B|--------------------------------------------------|
G|--------------------------------------------------|
D|-5-5--7-7-7--9-9-9--10-10-10--12-12-12-12--13-14--|
A|-3-3--7-7-7--9-9-9--10-10-10--12-12-12-12--13-14--|
E|-3-3--5-5-5--7-7-7--8--8--8---10-10-10-10--11-12--|


 Riff 9 both guitars
e|---------------------------------------------------|
B|---------------------------------------------------|
G|-2--2--x--2--x--2--2--x--2--x----------------------|
D|-2--2--x--2--x--0--0--x--0--x--4--4--x--4--x--3--3-|
A|-0--0--x--0--x--2--2--x--2--x--3--3--x--3--x--3--3-|
E|-------------------------------2--2--x--2--x--1--1-|(x2)

 Riff 10 both guitars
e|-----------------------------------------------|
B|-----------------------------------------------|
G|-10--10--10--9--9--9--10--10--7--13--13--11--7-|
D|-9---9---9---8--8--8--9---9---6--12--12--10--6-|
A|-8---8---8---7--7--7--8---8---5--11--11--9---5-|
E|-----------------------------------------------|(x4)

Go back and repeat riff 9 one time.

[Riff 11] 
(both guitars)

e|------------------------------------------------|
B|------------------------------------------------|
G|-2--2--x--2--x--2--2--x--2--x-------------------|
D|-2--2--x--2--x--0--0--x--0--x--4--4--x--4--x--2-|
A|-0--0--x--0--x--2--2--x--2--x--3--3--x--3--x--2-|
E|-------------------------------2--2--x--2--x--0-|

[Riff 12]
 Acoustic (Peter)
e|--0--|--0--|
B|--0--|--0--|
G|--5--|--0--| strum these chords
D|--7--|--5--|
A|--0--|--7--|
E|--0--|--0--|

[Riff 12] (mikael) Clean guitar
e|-7h---7--8--7~--10--8--10--10--7h-----------------|
B|--------------------------------------------------|
G|--------------------------------------------------|
D|--------------------------------------------------|
A|--------------------------------------------------|
E|--------------------------------------------------|

[Riff 13] (acoustic)
e|-x---x---x---x---x---0---0---0---0---|
B|-7---7---7---7---7---5---5---5---5---| strum these chords
G|-5---5---5---5---5---6---6---6---6---|8x
D|-7---7---7---7---7---6---6---6---6---|
A|-0---0---0---0---0---4---4---4---4---|
E|-0---0---0---0---0---0---0---0---0---|

[Riff 14] (acoustic)
e|--x---0---x---0---0---|
B|--x---0---x---0---0---|
G|--4---4---4---4---0---|
D|--4---4---4---4---4---|Strum these chords
A|--2---2---2---2---4---|
E|--0---0---0---0---2---|

[Riff 15] (acoustic)
e|-----0----------4---0--0-------|
B|-----0----------4---0--0-------|
G|-----0----------4---4--4-------|strum
D|-6---6------x---6---5--5-------|
A|-6---6------x---6---5--5-------|
E|-4---4---0--x---4---3--3-------|

[Riff 16]  (acoustic)
e|-0--0--0--0---0--0--0--0--0--------|
B|-0--0--0--0---0--0--0--0--0--------|strum.
G|-0--0--0--0---0--0--0--0--0--------|
D|-9--9--9--9---7--7--7--7--7--------|
A|-9--9--9--9---7--7--7--7--7--------|
E|-7--7--7--7---5--5--5--5--5--------|(x4)

 Riff 17 (acoustic)
e|-0--0--0--0---0--0--0--0--|
B|-0--0--0--0---5--5--5--5--|
G|-0--0--0--0---6--6--6--6--|
D|-7--7--7--7---6--6--6--6--|
A|-7--7--7--7---4--4--4--4--|
E|-5--5--5--5---0--0--0--0--|(x4)

 Riff 18(electric)both guitars
e|------------------------------|
B|------------------------------|
G|------------------------------|
D|-4----4----4----4----4----4---|
A|-3----3----3----3----3----3---|
E|-2----2----2----2----2----2---|
  *    *    *    *    *    *

[Riff 19]  
(both guitars)
e|------------------------------|
B|------------------------------|
G|------------------------------|
D|------------------------------|
A|------------------------------|
E|-0--2--3--2--0--3--5--6~------|

[Solo] (mikael)
time 4/4

e|----------------------------------------|
B|----------------------------------------|
G|--------------/11---9--11~-12p9h--------|
D|----7--9--12----------------------------|
A|-7--------------------------------------|
E|----------------------------------------|


e|----------------------------------------|
B|----------------------------------------|
G|--------------/11---9--11~-12p9h--------|
D|----7--9--12----------------------------|
A|-7--------------------------------------|
E|----------------------------------------|


e|----------------------------------------|
B|----------------------------------------|
G|--------------/11---9--11~-12p9h--------|
D|----7--9--12----------------------------|
A|-7--------------------------------------|
E|----------------------------------------|


e|----------------------------------------|
B|----------------------------------------|
G|--------------/11---9--11~-12p9h--------|
D|----7--9--12----------------------------|
A|-7--------------------------------------|
E|----------------------------------------|


e|-/10-10-10-10-10-10-10-10--10-10-10-10-10-10-10-10-10-10-|
B|-/12-12-12-12-12-12-12-12--11-11-11-11-11-11-11-11-11-11-|
G|---------------------------------------------------------|
D|---------------------------------------------------------|
A|---------------------------------------------------------|
E|---------------------------------------------------------|

e|-----------------------------------7--------------------------------------|
B|-7h8p--------------10b-8--------------7--------5--7--8h-7h8--10--12~-15b~-|
G|------9-7----------------9h--9--11-------9--7-----------------------------|
D|----------7---------------------------------------------------------------|
A|------------7/8~----------------------------------------------------------|
E|--------------------------------------------------------------------------|

Rhythm over the solo.(peter)

e|------------------------------------------------------|
B|------------------------------------------------------|
G|------------------------------------------------------|
D|------------------------------------------------------|
A|------------------------------------------------------|
E|-0-10-12--0-10-12--0-10-12--0-10-12--0-10-12--0-10-12-|

e|------------------------------------------------------|
B|------------------------------------------------------|
G|------------------------------------------------------|
D|------------------------------------------------------|
A|------------------------------------------------------|
E|-0-10-12--0-10-12--0-10-12--0-10-12--0-10-12--0-10-12-|

e|------------------------------|
B|------------------------------|
G|------------------------------|
D|------------------------------|
A|------------------------------|
E|-0--2--3--2--0--3--5--6~------|

[Riff 19]
(peter) strum up and down. repeat this many times.
e|------------------------------------------------------------------|
B|------------------------------------------------------------------|
G|-9--9--9--9--9/11-11-11-11/12-12-12-12/16-16-16-16\14-14-14-14\12-|
D|-8--8--8--8--8/10-10-10-10/11-11-11-11/15-15-15-15\13-13-13-13\11-|
A|-7--7--7--7--7/9--9--9--9-/10-10-10-10/14-14-14-14\12-12-12-12\10-|
E|------------------------------------------------------------------|

e|-------------------|
B|-------------------|
G|-------------------|
D|-11-11-11-11-11-11-|
A|-10-10-10-10-10-10-|
E|-9--9--9--9--9--9--|

e|------------------------------------------------------------------------------|
B|------------------------------------------------------------------------------|
G|-9--9--9--9--9/11-11-11-11/12-12-12-12/16-16-16-16\14-14-14-14\-11-9-9-9-9----|
D|-8--8--8--8--8/10-10-10-10/11-11-11-11/15-15-15-15\13-13-13-13\-10-8-8-8-8----|
A|-7--7--7--7--7/9--9--9--9-/10-10-10-10/14-14-14-14\12-12-12-12\-9--7-7-7-7----|
E|------------------------------------------------------------------------------|

 Riff 19 (mikael)strum up and down    repeat this many times
e|------------------------------------------------|
B|------------------------------------------------|
G|-9--9--9--9--9--9--9--9--9--9--9--9--9--9--9--9-|
D|-9--9--9--9--9--9--9--9--9--9--9--9--9--9--9--9-|
A|-7--7--7--7--7--7--7--7--7--7--7--7--7--7--7--7-|
E|-------------------8--8--8--8--8--9--9--9--9--9-|

e|---------------------------------------|
B|---------------------------------------|
G|---------------------------------------|
D|-12--12--12--12--12--12--12--12--12--7-|
A|-10--10--10--10--10--10--10--10--10--7-|
E|-12--12--12--12--12--11--11--11--11--5-|


************************************

| x   Dead note
| /   Slide up
| .   Staccato
| \   Slide down
| ~   Vibrato
| h   Hammer-on
| b   Bend
| p   Pull-off
| b~  bend
| ph  pinch harmonic

************************************
Suggest correction
comments
print report bad tab
10 comments total. Showing first comments.
+2 reply
Emenius Sleepus 290 Apr 17, 2006 04:28 AM

no, he got the intro right bro

+1 reply
dykarN 16 Aug 14, 2006 08:14 AM

No, he's right about that part. It's played with octave chords.

0 reply
Night_Lights 60 Sep 08, 2006 01:14 AM

the 3rd riff is wrong.. the one with the P.H.

guest
You may want to rate the tab now too:
select rating
Wanna post a correction for this tab? Suggest correction