Oops, an error
Loading. Please wait.

Masters Apprentices tab

version 2
version 2

Whole song

Interactive

by Opeth
700 views 6 this week
1 commentread comment
1 2 3 4 5
x 3
add to favorites
×
Save as Personal and add changes to this tab that will be seen only by you. Learn more ›
×
You can save this tab as Personal to edit and correct it or add notes. All changes will be seen only by you. Learn more »
launch autoscroll
font size
0
reset
how to read this tab
guitar tuner
edit
Autoscroll
slow
fast
+/-
esc
set tempo
stop
Author
Difficulty
Song: Master's Apprentices
Band: Opeth
Album: Deliverance

Transcribed by Jonas Svarholt
This tab is 100% right.
Source: Opeth live videos on youtube.


Riff 1 (Intro & Verse)

|-------------------------------------|
|-------------------------------------|
|-------------------------------------|
|-3--2---x--2--2--2--2--3-----/6--7---|
|-3--2---x--2--2--2--2--3-------------|
|-1--0---x--0--0--0--0--1--0--/4--5---|
           

|---------------------------------------------------|
|---------------------------------------------------|
|---------------------------------------------------|
|-2-2---3--2---x--2--2--2--2--3-------6--7--10--2-2-|
|-2-2---3--2---x--2--2--2--2--3-----------------2-2-|
|-0-0---1--0---x--0--0--0--0--1--0---/4--5--8---0-0-|


Riff 2 ("The sickness in me...")

|----------------------------------------------------------|
|----------------------------------------------------------|
|----------------------------------------------------------|
|-9--9---9-x--9--9---9-x--9--9---7\6-6-6--15-15-15-15-15---| 4x
|-9--9---9-x--9--9---9-x--9--9---7\6-6-6--15-15-15-15-15---|
|-7--7---7-x--7--7---7-x--7--7---5\4-4-4--13-13-13-13-13---|


Riff 3 ("There is a home I am deserting...")

|----------------------------------------------------------|
|----------------------------------------------------------|
|----------------------------------------------------------|
|-3--2---x--2--2--2--2-------------------------------------|x1
|-3--2---x--2--2--2--2----------------6--------6-----------|
|-1--0---x--0--0--0--0--1--0--1/4--5-----0--8-----5--------|


Riff 4 ("Uuuh!...")

(Both guitars)
|----------------------------------------------------------|
|----------------------------------------------------------|
|----------------------------------------------------------|
|------------5--6------------------------------------------| x1
|---------------------------------8-----6/5----------------|
|-1--0--0-0--3--4--0-3-4-6-7--6-7---6-7------7-6-3h6--0----|


|----------------------------------------------------------|
|----------------------------------------------------------|
|----------------------------------------------------------|
|------------5--6------------------------------------------| x3
|---------------------------------8-----6/5----------------|
|-4--0--0-0--3--4--0-3-4-6-7--6-7---6-7-------7-6-3h6--0---|


Riff 5 (Both guitars)
        
|---------------------------------------------------------------|
|---------------------------------------------------------------|
|---------------------------------------------------------------|
|------------2-----2------6------------------------6------------|
|-/7-6-------2-----2--------0-----/7-6-------------------5------|
|-/8-7--0-0--0--0--0--3/4-----4---/8-7--0-0--/6--5---5/4---4/3--|


Riff 6

(Peter) ("I hold my breath and wait")
|------------------------------------------------------------|
|------------------------------------------------------------|
|------------------------------------------------------------|
|-----------------------------------------------6--9--12-----|4x
|-2-2-2--2--2--2-2--2-2---2-1-0------------------------------|
|-0-0-0--0--0--0-0--0-0----------1--0--/6--0-0--4--7--10-----|


BACKBEAT LEAD (Mikael)
|-----------------------------------------|
|-----------------------------------------|
|-----------------------------------------|
|-------6-----9--7-----7------------------|2x
|-7--8-----7--------8------8--7--6--7-----|
|--------------------------------------7--|



Riff 7 (Both guitars)
|-----------------------------------------------|
|-----------------------------------------------|
|-----------------------------------------------|
|-5-5--7-7-7--9-9-9--10-10-10--12-12-12--13-14--|1x
|-----------------------------------------------|
|-3-3--5-5-5--7-7-7--8--8--8---10-10-10--11-12--|



Riff 8 ("Soothing trance...")


Chords in order:

Am: x02210

B11: x21200

Am(add9)/F: xx4500

Csus11: x33500

F: 133211 


Riff 9 ("In a motionless scene...")


Dm    (x57760)

Ddim  (xx6760)



"In too..." - Fade out:


Mikael:

x097xx   


Peter:

5577xx



Riff 10 "...death..." 


Aadd9 (x07600)
               x1
Em    (x75000)


Am9   (x07500)

Em    (x75000)



Riff 11 ("Every wretched dream I have left behind...")


Am    (x07570)

C#m   (x46650)



Riff 12 ("Once I'm below there's no turning back...")



Bm    (x24430)

Bm/A  (x04430)

F#    (244322)



Riff 13 ("Back...")


G#m   (466444)

Em9   (024000)



Riff 14 LAST TIME 


Mikael:

G#m   (466444)

G#5/E (044xxx)

F#    (998xxx)


Peter:

G#m   (466444)

F#    (244322)



Riff 15 ("Aaaaaaaaa-ah")


Badd11(799800)

Aadd9 (577600)



Riff 16 ("Every wretched dream I have left behind..")



Am    (577555)

C#9   (x468xx)

C#m   (x46654)




Riff 17 (Both guitars)


|------------------------------|
|------------------------------|
|------------------------------|
|-4----4----4----4----4----4---|
|-3----3----3----3----3----3---|
|------------------------------|


Riff 18 (Both guitars)


|-----------------------|
|-----------------------|
|-----------------------|
|-----------------------|
|-----------------------|
|-0--2--3--0--3--5--6~--|

|------------------------------------------------------|
|------------------------------------------------------|
|------------------------------------------------------|
|------------------------------------------------------|
|------------------------------------------------------|
|-0-10-12--0-10-12--0-10-12--0-10-12--0-10-12--0-10-12-|

|------------------------------------------------------|
|------------------------------------------------------|
|------------------------------------------------------|
|------------------------------------------------------|
|------------------------------------------------------|
|-0-10-12--0-10-12--0-10-12--0-10-12--0-10-12--0-10-12-|

|------------------------------|
|------------------------------|
|------------------------------|
|------------------------------|
|------------------------------|
|-0--2--3--0--3--5--6~---------|


Riff 19

|---------------------------------------------------------------|
|----------------15--14--13--13-15--12--------------------------|
|-9--11--12--14-------------------------------------------------|
|----------------12--11--10--10/12--9---------------------------|
|-7--9---10--12-------------------------------------------------|
|---------------------------------------------------------------|


SOLO (Mikael)
Time signature 6/8


|---10--10--10--10--10--10--10--10--10--10--10--10--|
|-12--12--12--12--12--12--11--11--11--11--11--11----|
|---------------------------------------------------|
|---------------------------------------------------|
|---------------------------------------------------|
|---------------------------------------------------|

                             *brb*
|----------------------------------------------7/5----------------------------------|
|-7h8------------------------10b12--8--------8-----7-------7-8--7-8-10---12b13rb12--|
|------9--7h9-7------------------------9---9---------7---9--------------------------|
|----------------9/7-5---------------------------------9----------------------------|
|------------~----------5/7---------------------------------------------------------|
|-----------------------------------------------------------------------------------|

|---------|
|--15b17--|
|---------|
|---------|
|---------|
|---------|


Riff 20 (Outro riff):


(Mikael)
|----------------------------------------------------------------|
|----------------------------------------------------------------|
|-9--9-9-9-9--11--11-11-11-11-12--12-12-12-12--12--12-12-12-12---|
|----------------------------------------------------------------|
|-7--7-7-7-7--9---9--9--9--9--10--10-10-10-10--10--10-10-10-10---|
|----------------------------------------------------------------|

|------------------------------------------------------------------|
|------------------------------------------------------------------|
|-16--16-16-16-16--14--14-14--12--12/11--11-11-11-11-11--11-11--5--|
|------------------------------------------------------------------|
|-14--14-14-14-14--12--12-12--10--10/9---9--9--9--9--9---9--9---7--|
|------------------------------------------------------------------|



(Peter)


Chords: 0799xx 8799xx 9799xx 1214xxxx 1112xxxx 577xxx

Suggest correction
Creating personal tab
Creating personal tab
You can edit any tab online and save it as your Personal.

You can edit, replace or remove any tab part or add personal notes – all changes will be seen only by you.

Personal tabs can be accessed anytime from any device, even offline.
Learn more »
Give kudos to tab author, rate the tab!
1 2 3 4 5
comments
print report bad tab
1 comment total.
0 reply
danyloviniciu 45 Sep 15, 2016 12:23 PM

Perfect, tnx.

guest
You may want to rate the tab now too:
select rating
Wanna post a correction for this tab? Suggest correction