Oops, an error
Loading. Please wait.

River tab

version 2
version 2

Whole song

by Opeth
40 views 3 this week
no commentswrite comment
1 2 3 4 5
3 more votes to show rating
add to favorites
×
Save as Personal and add changes to this tab that will be seen only by you. Learn more ›
×
You can save this tab as Personal to edit and correct it or add notes. All changes will be seen only by you. Learn more »
launch autoscroll
font size
0
reset
how to read this tab
guitar tuner
edit
Autoscroll
slow
fast
+/-
esc
set tempo
stop
[Verse 1]
e|-------------------------------------------------------|
B|-------------------------------------------------------|
G|---------0--------------0------------0-----------0-----|
D|------12---12--------12---12-------0---0-------0---0---|
A|----9---------9----9---------9---7-------7---7-------7-|
E|-10-------------10-------------8-----------8-----------|
                                                    } x5
e|-------------------------------------------------|
B|-------------------------------------------------|
G|-------0-----------0-----------0-----------0-----|
D|-----0---0-------0---0-------0---0-------0---0---|
A|---3-------3---3-------3---2-------2---2-------2-|
E|-3-----------3-----------3-----------3-----------|

e|-------------1----------------3-----------------3----|
B|---------1----------------3---------------------3----|
G|-----2-----2----------0-----0--------------0----0----|
D|---3---3------------2---2--------------0-----0--0----|
A|-3----------------3------------------2---2------2----|
E|-----------------------------------3------------3----|

e|-------------1----------------3----3----|
B|---------1----------------3--------3----|
G|-----2-----2----------0-----0------0----|
D|---3---3------------2---2----------0----|
A|-3----------------3----------------2----|
E|-----------------------------------3----|

[Verse 2]
e|-------------------------------------------------------|
B|-------------------------------------------------------|
G|---------0--------------0------------0-----------0-----|
D|------12---12--------12---12-------0---0-------0---0---|
A|----9---------9----9---------9---7-------7---7-------7-|
E|-10-------------10-------------8-----------8-----------|
                                                        } x5
e|-------------------------------------------------|
B|-------------------------------------------------|
G|-------0-----------0-----------0-----------0-----|
D|-----0---0-------0---0-------0---0-------0---0---|
A|---3-------3---3-------3---2-------2---2-------2-|
E|-3-----------3-----------3-----------3-----------|

e|-1--1--1--1-1-1--3--3--3--3-3-3--3--3--3----3-3-3--3--3--3--3-3-3----|
B|-1--1--1--1-1-1--3--3--2--3-3-3--3--3--3----3-3-3--3--3--3--3-3-3----|
G|-2--2--2--2-2-2--0--0--0--0-0-0--0--0--0----0-0-0--0--0--0--0-0-0----|
D|-3--3--3--3-3-3--2--2--2--2-2-2--0--0--0----0-0-0--0--0--0--0-0-0----|
A|-3--2--2--2-2-2--3--3--3--3-3-3--2--2--0h2--2-2-2--2--2--2--2-2-2----|
E|-1--1--1--1-1-1------------------3--3--3----3-3-3--3--3--3--3-3-3----|

e|-1--1--1--1-1-1--3--3--3--3-3-3--3----|
B|-1--1--1--1-1-1--3--3--2--3-3-3--3----|
G|-2--2--2--2-2-2--0--0--0--0-0-0--0----|
D|-3--3--3--3-3-3--2--2--2--2-2-2--0----|
A|-3--2--2--2-2-2--3--3--3--3-3-3--2----|
E|-1--1--1--1-1-1------------------3----|

[Solo 1]
(Rhythm plays Verse 2 again
Neck Pickup)
e|----------------------------------------------------------------------------|
B|----------------------------------------------------------------------------|
G|----------------------------------------------------------------------------|
D|----12--------10----10h12p10/9----9h10p9----5h7/9--(9)qb--7--h9--7h9p7\5----|
A|---x------------------------------------------------------------------------|
E|----------------------------------------------------------------------------|

e|---------------------------------------------------------------------------|
B|---------------------------------------------------------------------------|
G|---------------------------------------------------------------------------|
D|-7h9p7\5--4h5--2h4--0h2---------------------12--14-b15r14-12----10h12-9----|
A|-------------------------4h5--2h4--0h2-------------------------------------|
E|---------------------------------------3-----------------------------------|

e|-----------------------------------------------------------|
B|-----------------------------------------------------------|
G|--------------------------7--/12-12--------14-b15r14-12----|
D|-9h10p9\7h9-5h7/9--7\5-------------------------------------|
A|-----------------------------------------------------------|
E|-----------------------------------------------------------|

[Change to bridge pickup]
e|-------------------------------------------------------------------------|
B|-------------------------------------------------------------------------|
G|-14b16--14--------12--12h14-12--\--12h14-14/16--b17--14--16--12h14p12----|
D|-------------------------------------------------------------------------|
A|-------------------------------------------------------------------------|
E|-------------------------------------------------------------------------|

e|--------------------------------------------------------------------------------|
B|------------------------------------5b6r5-------5b6r5-----------8-10-11p10p8----|
G|-10h12----------------------------3-5b6r5-3---3-5b6r5-3---3-5/7-----------------|
D|-------10-----------3h5---------------------5-----------5-----------------------|
A|-----------13-10--------3-------------------------------------------------------|
E|---------------------------6-3--------------------------------------------------|

e|---------------------------------------------------------|
B|----8----------------------------------------------------|
G|-10---10b12r10--7-10-7h10p7-5h7p5-3h5b6r5-3---3h4--------|
D|--------------------------------------------5------5\----|
A|---------------------------------------------------------|
E|---------------------------------------------------------|

e|---------------------------------------------------------------------------------|
B|--------------------------------------------------8-10-10h11p10p8-11-13-13\15----|
G|-x-12-12-12\10--10-9-9-9\7-7-7\5--h7b8r7--------7--------------------------------|
D|------------------------------------------5-7-8----------------------------------|
A|---------------------------------------------------------------------------------|
E|---------------------------------------------------------------------------------|

[Bridge]
e|----------------------------|
B|----------------------------|
G|-----5-----4-----2-----2----|
D|---2-----4-----2-----4------| x2
A|-0-----2-----3-----5--------|
E|----------------------------|

e|-----1-----1-----0-----0----|
B|-----3-----3-----3-----3----|
G|---2-----2-----3-----3------|
D|-0-----0-----0-----0--------| x4
A|----------------------------|
E|----------------------------|

e|-3------5------3------2------3------5------3------------------------0----|
B|-3------6------3------3------3------6------3------7--------7--------0----|
G|-3------7------3------4------3------7------3------6--------5--------1----|
D|-5------7------5------4------5------7------5------7--------7--------2----|
A|-5------5------5------2------5------5------5------5--------5--------2----|
E|-3-------------3-------------3-------------3------------------------0----|
|
e|--------------------------------------------------------------------0----|
B|--------------------------------------------------------7--------7--0----|
G|------------------------------------------------------6--------5----1----|
D|----------------------------------------------------7--------7------2----|
A|--------------------------------------------------5--------5--------2----|
E|--------------------------------------------------------------------0----|

[Solo section]
(4:05 - 5:08)
(The solo section might have some parts wrong, since the legato bits were blazing fast, I slowed it down
to tab 'em but I might have lost some notes on the way)
[Solo 2]
e|------------------------------------------------------------------------|
B|----------------------------------------------------------8h9p8---------|
G|---4---5---7---5---7-7-7b8r7--5h7p5--------5-7b10r7-10b12-------10p0----|
D|-5---5---5---5---5------------------6----6------------------------------|
A|--------------------------------------8---------------------------------|
E|------------------------------------------------------------------------|

e|-----------------------------------------------------------------------------------------------|
B|-12----------12-12b13~~~~-------14-15-14----14-------14-15-14----14-17-15----15-17-17b18-17----|
G|----12-10-12--------------16b17----------16----16b17----------16----------15-------------------|
D|-----------------------------------------------------------------------------------------------|
A|-----------------------------------------------------------------------------------------------|
E|-----------------------------------------------------------------------------------------------|

e|-------------------------------------------------------------------|
B|-------------------------------------------------------------------|
G|-12h13p12p10h12p10-/12h15p13p12h13p12p10h12p10-12h13p10-12p10------|
D|--------------------------------------------------------------9----|
A|-------------------------------------------------------------------|
E|-------------------------------------------------------------------|

[Solo 3]
e|----------------------------------------------------------------------------|
B|------------------------------------------8h10-----9p7---------------8------|
G|----------------------------8h9----8h9-11------11------9-11p8---8-11---9----|
D|-----6-7-9-10-9h10p9h7h9h10-----10----------------------------9-------------|
A|-7h8------------------------------------------------------------------------|
E|----------------------------------------------------------------------------|

e|----------------------------------------/17----------16-------------------------|
B|----------12h13----12h13p12----13-12~~~--------17-15----17-15-------15----------|
G|-11h12h14-------14----------14--------------------------------16-14----16-14----|
D|--------------------------------------------------------------------------------|
A|--------------------------------------------------------------------------------|
E|--------------------------------------------------------------------------------|

e|-------------------------------------------------------------------12-13h16p13p12----|
B|-------------------------------------------------13h15p13p12h13h15-------------------|
G|-13b14r13----14-13b14r13----------------13h14h16-------------------------------------|
D|----------15-------------15-14-12-14h15----------------------------------------------|
A|-------------------------------------------------------------------------------------|
E|-------------------------------------------------------------------------------------|

e|-13-16-17-19--19b20~~~~----|
B|---------------------------|
G|---------------------------|
D|---------------------------|
A|---------------------------|
E|---------------------------|

[Solo 4]
e|-----------------------------------------------------10p9---------9-10/12----|
B|-----------------------8---10---10b11r10-8----8--8b-------10p8h10------------|
G|-----7-6-7-9-9b10r9b10---7----7------------10---10b--------------------------|
D|-5h7-------------------------------------------------------------------------|
A|-----------------------------------------------------------------------------|
E|-----------------------------------------------------------------------------|

e|-10-12b13r12-10----10------------------------------------------------------------|
B|----------------13----13b15r13--11p10h11p10--------------------------15----15----|
G|--------------------------------------------12--12h15p12p10h12h15\17----17-------|
D|---------------------------------------------------------------------------------|
A|---------------------------------------------------------------------------------|
E|---------------------------------------------------------------------------------|

e|--------------------------------------------------------------------------------------|
B|----15h16p15----15----13-----------------------------------------------------18-------|
G|-17----------17----15----14h15-12h14--12--14h15p14p11----11h14-15/17-15-17b19--19r----|
D|------------------------------------------------------12------------------------------|
A|--------------------------------------------------------------------------------------|
E|--------------------------------------------------------------------------------------|

[Solo 5]
e|-11b12r11---------------------------------------------------------------------|
B|----------12--9-12b13r12-9----12-9------10b12--9------9----------------7h8----|
G|---------------------------10------10-8----------11-9---11-12-9h11-8h9--------|
D|------------------------------------------------------------------------------|
A|------------------------------------------------------------------------------|
E|------------------------------------------------------------------------------|

e|--------------------------------------------------------------------------------|
B|---------------------------------13h16----13h16-17-13--13h16-13-----------------|
G|-9h11h12/14-16p14h16p14p12h14h16-------16-----------------------16-12--14-16----|
D|--------------------------------------------------------------------------------|
A|--------------------------------------------------------------------------------|
E|--------------------------------------------------------------------------------|

e|-------------------------------------------------------------------------------|
B|-13h16----13h16h17/19-17h19p17p16h17h19-20p19h20p19p18h19h20h22p20p19h20h22----|
G|-------16----------------------------------------------------------------------|
D|-------------------------------------------------------------------------------|
A|-------------------------------------------------------------------------------|
E|-------------------------------------------------------------------------------|

e|-19p17----19/22--19----19----------------|
B|-------20-----------20----20-17----------|
G|--------------------------------17-16----|
D|-----------------------------------------|
A|-----------------------------------------|
E|-----------------------------------------|

[Unison Solo]
(Left channel)
e|---------------------------------------------------------------------------|
B|------------12-10----------------------------------------------------------|
G|------------------7h9-7----7-9h10p9p7-7------------9b10-9b10-9-7-9b10------|
D|-------------------------9--------------9-7---------------------------9----|
A|-7-5----------------------------------------6h7-6--------------------------|
E|-----6-0-------------------------------------------------------------------|

e|------------------------------------------|
B|-10-12------------------------------------|
G|-------11-14-11/13-11--9h11---------------|
D|----------------------------9-------------|
A|------------------------------------------|
E|---------------------------------(9\7)----|

(Right channel)
e|---------------------------------------------------------------------------------|
B|-------------4-------------------------------------------------------------------|
G|---------------6--6-4------4--6h7p6p4-4------------13b14-13b14-13-11-13b14-------|
D|-------------------------4--------------4-7-4/6-4--------------------------12----|
A|-7-5-----------------------------------------------------------------------------|
E|-----6-0-------------------------------------------------------------------------|

e|------------------------------------------|
B|-10-12------------------------------------|
G|-------11-14-11/13-11--9h11---------------|
D|----------------------------9----11\9-----|
A|------------------------------------------|
E|------------------------------------------|

[Riff]
(Repeat twice)
e|-----------------------------------------------|
B|-----------------------------------------------|
G|-----------------------------------------------|
D|-----------------------------------------------|
A|----------------------5---5-5h7p5---5h7-8-7----|
E|-0-2-3--2-3-5--3-5-6----6---------6------------|

e|------------------------------------------------------|
B|------------------------------------------------------|
G|------------------------------------------------------|
D|---9----7----7h9p7---7-9-10--9-10-12--10-12-13-13\----|
A|-7---8-----8-------8----------------------------------|
E|------------------------------------------------------|

[Riff 2]
(Repeat twice)
(Not sure if at the end they’re all octaves or power chords, but I hear it this way)
e|----------------------------------------------------------------------------|
B|------------------------------------------8-8--8--7-7--7--------------------|
G|---------------3-----3h5-5b6r5p3---3------x-x--x--x-x--x--------------------|
D|-------4---2-4----4--------------4--4-4\--5-5--5--4-4--4--5-5--5--4-4--4----|
A|---2-4---4------------------------------------------------5-5--5--4-4--4----|
E|-2--------------------------------------------------------3-3--3--2-2--2----|

e|-----------------------------------------------|
B|-----------------------------------------------|
G|---------------3-----3h5b6r5p3---3--3h4p3------|
D|-------4---2-4----4------------4--4------------|
A|---2-4---4--------------------------------4----|
E|-2---------------------------------------------|

e|-----------------------------------------------------------|
B|-----------------------------------------------------------|
G|-/9-9-8h9p8----8h9-9/11--9-11-11/12-11-9h11p9\8h9p8--------|
D|------------11--------------------------------------11\----|
A|-----------------------------------------------------------|
E|-----------------------------------------------------------|

[Riff 3] 
                                                       (1st ending)
e|------------------------------------------------|----------------------------------|
B|------------------------------------------------|-----------------------5p4--------|
G|------------------------------------------------|-------2---2h4---2h4h5-----4------|
D|------------------------------------------------|---2h3---3-----3-------------4----|
A|-0--0-0-0-0h1p0h1p0-0-0--0--0-0-0-0h1p0h1p0-0-0-|-0--------------------------------|
E|------------------------------------------------|----------------------------------|

[2nd ending]
e|--------------------------------------------------|
B|--------------------------------------------------|
G|-------7---7h9---7-9h10p9p7h9p7---7---------------|
D|---7h8---8-----8----------------8---8-7h8p7-------|
A|-0------------------------------------------------|
E|--------------------------------------------6\----|

[Spoken bridge thingy]
(On this part I'm pretty sure that the low E is being played, but I start doubting the D string
when it gets a bit more quiet...)
e|----------------------------------------------------|
B|----------------------------------------------------|
G|----------------------------------------------------|
D|-5---4---------7---4---------5---4---------7---4----| x2
A|-3---2---------5---2---------3---2---------5---2----|
E|-3---2---------5---2---------3---2---------5---2----|

[Chorus]
(Repeat twice)
e|---------------------------------------------------------------------------|
B|---------------------------------------------------------------------------|
G|-4--4-4-4-4--4--4-4-4-4--4--4-4-4-4--4--4-4-4-4----------------------------|
D|-4--4-4-4-4--4--4-4-4-4--2--2-2-2-2--2--2-2-2-2--5--5-5-5-5--5--5-5-5-5----|
A|-2--2-2-2-2--2--2-2-2-2--0--0-0-0-0--0--0-0-0-0--5--5-5-5-5--5--5-5-5-5----|
E|-------------------------------------------------3--3-3-3-3--3--3-3-3-3----|

e|---------------------------|
B|---------------------------|
G|-7--7-7-7-7--6--6-6-6-6----|
D|-7--7-7-7-7--7--7-7-7-7----|
A|-5--5-5-5-5--4--4-4-4-4----|
E|---------------------------|

[Outro]
e|-------------------------------------------------------------|
B|-------------------------------------------------------------|
G|----------------------------------------11h12p11p9-----------|
D|---------------------------------------------------9---------| x4 
A|-----------------------------------------------------10-9----|
E|-12-12--12--12--0-0--0--0--12-12-12-12-----------------------|

e|-----------|
B|-----------|
G|-----------|
D|-----------|
A|-----------|
E|-12-12\----|



************************************

| h  Hammer-on
| p  Pull-off
| /  Slide up
| \  Slide down
| x  Dead note
| r  Release
| b  Bend
| ~  Vibrato

************************************
Suggest correction
Creating personal tab
Creating personal tab
You can edit any tab online and save it as your Personal.

You can edit, replace or remove any tab part or add personal notes – all changes will be seen only by you.

Personal tabs can be accessed anytime from any device, even offline.
Learn more »
Give kudos to tab author, rate the tab!
1 2 3 4 5
comments
print report bad tab
guest
You may want to rate the tab now too:
select rating
Wanna post a correction for this tab? Suggest correction