Oops, an error
Loading. Please wait.

Sorceress 2 Tab

version 1
version 1

Acoustic

  • This transcription contains all parts of the song in the correct order.

Interactive

1,444 views 72 this week
1 commentread comment
1 2 3 4 5
x 6
add to favorites
launch autoscroll
font size
0
reset
how to read this tab
guitar tuner
Autoscroll
slow
fast
+/-
esc
set tempo
stop
Help us to improve Ultimate-Guitar.com Take our survey!
×
Author
Tuning
E A D G B E
About this tab version
This transcription contains all parts of the song in the correct order. Was this info helpful? Yes No
Intro

e|---5-------7-----|---5-------7-----|---5-------7-----7--8-|
B|-----0-------0---|-----0-------0---|-----0----------------|
G|------5--7-----7-|-------5-7-----7-|-------5-7---7-8-8--9-|
D|-----------------|-----------------|----------------------|
A|-0---------------|-0---------------|-0--------------------|
E|-----------------|-----------------|----------------------|

e|---5-------7-----|---5-------7-----|---5-------7-----7--8-|
B|-----0-------0---|-----0-------0---|-----0----------------|
G|-------5-7-----7-|-------5-7-----7-|------5-7---7-8-8--9-|
D|-----------------|-----------------|----------------------|
A|-0---------------|-0---------------|-0--------------------|
E|-----------------|-----------------|----------------------|

e|-3---0-----------------|
B|---------3---1---0-----|
G|---0---0---0---0---0-2-|
D|-2---------------------|
A|-----3---2---0---------|
E|-----------------3---1-|
_____________________________________________________________

e|---5-------7-----|---5-------7-----|---5-------7-----7--8-|
B|-----0-------0---|-----0-------0---|-----0----------------|
G|-------5-7-----7-|-------5-7-----7-|-------5-7---7-8-8--9-|
D|-----------------|-----------------|----------------------|
A|-0---------------|-0---------------|-0--------------------|
E|-----------------|-----------------|----------------------|

e|---5-------7-----|---5-------7-----|---5-------7-----7--8-|
B|-----0-------0---|-----0-------0---|-----0----------------|
G|-------5-7-----7-|-------5-7-----7-|-------5-7---7-8-8--9-|
D|-----------------|-----------------|----------------------|
A|-0---------------|-0---------------|-0--------------------|
E|-----------------|-----------------|----------------------|

e|-3---0-----------------|
B|---------3---1---0-----|
G|---0---0---0---0---0-2-|
D|-2---------------------|
A|-----3---2---0---------|
E|-----------------3---1-|
_____________________________________________________________

e|---5-------7-----|---5-------7-----|---5-------7-----7--8-|
B|-----0-------0---|-----0-------0---|-----0----------------|
G|-------5-7-----7-|-------5-7-----7-|-------5-7---7-8-8--9-|
D|-----------------|-----------------|----------------------|
A|-0---------------|-0---------------|-0--------------------|
E|-----------------|-----------------|----------------------|


Verse One
   Until I take my final breath
e|---------------0--------|----------------------------|
B|---------4-------4------|----------7------8-7--------|
G|-----6-----6-------6----|-----9------9--------9------|
D|---7---7-----7-------7--|--10---10-----10-------10---|
A|-0---------------------0|0-------------------------0-|
E|------------------------|----------------------------|
   In a year or even less
e|---------------0--------|----------------------------|
B|---------4-------4------|----------7------8-7--------|
G|-----6-----6-------6----|-----9------9--------9------|
D|---7---7-----7-------7--|--10---10-----10-------10---|
A|-0---------------------0|0-------------------------0-|
E|------------------------|----------------------------|
   I hope you'll give me all your time
e|---------------0--------|----------------------------|
B|---------4-------4------|----------7------8-7--------|
G|-----6-----6-------6----|-----9------9--------9------|
D|---7---7-----7-------7--|--10---10-----10-------10---|
A|-0---------------------0|0-------------------------0-|
E|------------------------|----------------------------|
     And not forget me down the line
e|---------------0--------|----------------------------|
B|---------4-------4------|----------7------8-7--------|
G|-----6-----6-------6----|-----9------9--------9------|
D|---7---7-----7-------7--|--10---10-----10-------10---|
A|-0---------------------0|0-------------------------0-|
E|------------------------|----------------------------|

Chorus
       And I'll never ask you if you'll stay
e|---|-------0-5-----3-----2-----0-----|---------2-------------2---------|
B|---|-----3-----3-----3-----3-----3---|-----2-----2-------2-----2-------|
G|---|---2---------2-----2-----2-----2-|---2---2-----2---2---2-----2---2-|
D|---|-0-------------------------------|-0-------------0-------------0---|
A|-0-|---------------------------------|---------------------------------|
E|---|---------------------------------|---------------------------------|

      Or if you'll cry when I go away
e|---------------------------------|-------------------|
B|-----3---3---------3---3---------|-----2---2---2-3-5-|
G|-------------------------0-------|-------2---2-------|
D|---0---0---0-----0---0-----0---0-|---2---------------|
A|---------------1-------------1---|-0-----------------|
E|-3-----------3-------------------|-------------------|

(Verse One Repeated with Chorus)
Verse One

   Until I take my final breath
e|---------------0--------|----------------------------|
B|---------4-------4------|----------7------8-7--------|
G|-----6-----6-------6----|-----9------9--------9------|
D|---7---7-----7-------7--|--10---10-----10-------10---|
A|-0---------------------0|0-------------------------0-|
E|------------------------|----------------------------|
   In a year or even less
e|---------------0--------|----------------------------|
B|---------4-------4------|----------7------8-7--------|
G|-----6-----6-------6----|-----9------9--------9------|
D|---7---7-----7-------7--|--10---10-----10-------10---|
A|-0---------------------0|0-------------------------0-|
E|------------------------|----------------------------|
   I hope you'll give me all your time
e|---------------0--------|----------------------------|
B|---------4-------4------|----------7------8-7--------|
G|-----6-----6-------6----|-----9------9--------9------|
D|---7---7-----7-------7--|--10---10-----10-------10---|
A|-0---------------------0|0-------------------------0-|
E|------------------------|----------------------------|
     And not forget me down the line
e|---------------0--------|----------------------------|
B|---------4-------4------|----------7------8-7--------|
G|-----6-----6-------6----|-----9------9--------9------|
D|---7---7-----7-------7--|--10---10-----10-------10---|
A|-0---------------------0|0-------------------------0-|
E|------------------------|----------------------------|

Chorus
       And I'll never ask you if you'll stay
e|---|-------0-5-----3-----2-----0-----|---------2-------------2---------|
B|---|-----3-----3-----3-----3-----3---|-----2-----2-------2-----2-------|
G|---|---2---------2-----2-----2-----2-|---2---2-----2---2---2-----2---2-|
D|---|-0-------------------------------|-0-------------0-------------0---|
A|-0-|---------------------------------|---------------------------------|
E|---|---------------------------------|---------------------------------|

      Or if you'll cry when I go away
e|---------------------------------|-------------------|
B|-----3---3---------3---3---------|-----2---2---2-3-5-|
G|-------------------------0-------|-------2---2-------|
D|---0---0---0-----0---0-----0---0-|---2---------------|
A|---------------1-------------1---|-0-----------------|
E|-3-----------3-------------------|-------------------|

Intro

e|---5-------7-----|---5-------7-----|---5-------7-----7--8-|
B|-----0-------0---|-----0-------0---|-----0----------------|
G|-------5-7-----7-|-------5-7-----7-|-------5-7---7-8-8--9-|
D|-----------------|-----------------|----------------------|
A|-0---------------|-0---------------|-0--------------------|
E|-----------------|-----------------|----------------------|

e|---5-------7-----|---5-------7-----|---5-------7-----7--8-|
B|-----0-------0---|-----0-------0---|-----0----------------|
G|-------5-7-----7-|-------5-7-----7-|-------5-7---7-8-8--9-|
D|-----------------|-----------------|----------------------|
A|-0---------------|-0---------------|-0--------------------|
E|-----------------|-----------------|----------------------|

  Ice melting into the sea
e|-3---0-----------------|
B|---------3---1---0-----|
G|---0---0---0---0---0-2-|
D|-2---------------------|
A|-----3---2---0---------|
E|-----------------3---1-|

e|---5-------7-----|---5-------7-----|---5-------7-----7--8-|
B|-----0-------0---|-----0-------0---|-----0----------------|
G|-------5-7-----7-|-------5-7-----7-|-------5-7---7-8-8--9-|
D|-----------------|-----------------|----------------------|
A|-0---------------|-0---------------|-0--------------------|
E|-----------------|-----------------|----------------------|

e|---5-------7-----|---5-------7-----|---5-------7-----7--8-|
B|-----0-------0---|-----0-------0---|-----0----------------|
G|-------5-7-----7-|-------5-7-----7-|-------5-7---7-8-8--9-|
D|-----------------|-----------------|----------------------|
A|-0---------------|-0---------------|-0--------------------|
E|-----------------|-----------------|----------------------|

   River flowing back to me
e|-3---0-----------------|
B|---------3---1---0-----|
G|---0---0---0---0---0-2-|
D|-2---------------------|
A|-----3---2---0---------|
E|-----------------3---1-|

e|---5-------7-----|---5-------7-----|---5-------7-----7--8-|
B|-----0-------0---|-----0-------0---|-----0----------------|
G|-------5-7-----7-|-------5-7-----7-|-------5-7---7-8-8--9-|
D|-----------------|-----------------|----------------------|
A|-0---------------|-0---------------|-0--------------------|
E|-----------------|-----------------|----------------------|

Verse Two

    And when you take your final breath
e|---------------0--------|----------------------------|
B|---------4-------4------|----------7------8-7--------|
G|-----6-----6-------6----|-----9------9--------9------|
D|---7---7-----7-------7--|--10---10-----10-------10---|
A|-0---------------------0|0-------------------------0-|
E|------------------------|----------------------------|

    In many years from now, no less
e|---------------0--------|----------------------------|
B|---------4-------4------|----------7------8-7--------|
G|-----6-----6-------6----|-----9------9--------9------|
D|---7---7-----7-------7--|--10---10-----10-------10---|
A|-0---------------------0|0-------------------------0-|
E|------------------------|----------------------------|

    I hope you feel a peace at heart
e|---------------0--------|----------------------------|
B|---------4-------4------|----------7------8-7--------|
G|-----6-----6-------6----|-----9------9--------9------|
D|---7---7-----7-------7--|--10---10-----10-------10---|
A|-0---------------------0|0-------------------------0-|
E|------------------------|----------------------------|

    Don't be afraid to kiss the dark
e|---------------0--------|----------------------------|
B|---------4-------4------|----------7------8-7--------|
G|-----6-----6-------6----|-----9------9--------9------|
D|---7---7-----7-------7--|--10---10-----10-------10---|
A|-0---------------------0|0-------------------------0-|
E|------------------------|----------------------------|

Chorus
        An don't ever wonder if I stayed
e|---|-------0-5-----3-----2-----0-----|---------2-------------2---------|
B|---|-----3-----3-----3-----3-----3---|-----2-----2-------2-----2-------|
G|---|---2---------2-----2-----2-----2-|---2---2-----2---2---2-----2---2-|
D|---|-0-------------------------------|-0-------------0-------------0---|
A|-0-|---------------------------------|---------------------------------|
E|---|---------------------------------|---------------------------------|

     My love for you can't die away
e|---------------------------------|-------------------|
B|-----3---3---------3---3---------|-----2---2---2-3-5-|
G|-------------------------0-------|-------2---2-------|
D|---0---0---0-----0---0-----0---0-|---2---------------|
A|---------------1-------------1---|-0-----------------|
E|-3-----------3-------------------|-------------------|


The song ends on a D chord with a nice little flourish.

Suggest correction
comments
print report bad tab
1 comment total.
0 reply
injera 37 Oct 08, 2016 11:55 AM

Great tab !

just for the sake of adding something there's a bunch of slides here and there

e|---5-------7-----|
B|-----0-------0---|
G|-------5s7-----7-|
D|-----------------|
A|-0---------------|
E|-----------------|

guest
You may want to rate the tab now too:
select rating
Wanna post a correction for this tab? Suggest correction