Oops, an error
Loading. Please wait.

The Amen Corner bass

version 1
version 1

Whole song

Interactive

by Opeth
375 views 1 this week
no commentswrite comment
1 2 3 4 5
3 more votes to show rating
add to favorites
×
Save as Personal and add changes to this tab that will be seen only by you. Learn more ›
×
You can save this tab as Personal to edit and correct it or add notes. All changes will be seen only by you. Learn more »
launch autoscroll
font size
0
reset
guitar tuner
edit
Autoscroll
slow
fast
+/-
esc
set tempo
stop
Author
Difficulty
                                The Amen Corner                                 


                                   Opeth
Bass



      Q.     H        E     Q    E  H        E   4x  E.  E.  E.  E.  Q     
G||----------------------|-----------------------||-----------------------|
D||*---------------------|----------------------*||-----------------------|
A||*---------------------|----------------------*||-----------------------|
E||---0------6--------L--|--7----6--3--------L---||--0---0---0---0---0----|


    Q       E    H         E     E.  E.  E.  E.  Q       Q    E  H        E   
--(11)----(10)--(7)--------L--|-----------------------|----------------------|
----9-------8----5---------L--|-----------------------|----------------------|
------------------------------|-----------------------|----------------------|
------------------------------|--0---0---0---0---0----|--7----6--3--------L--|


                                       |-3-|                   
    E.  S S S E.  S S S E  S S    Q    S S S E.  S S S E  S S  
|------------------------------|------------------------------|
|*-----------------------------|------------------------------|
|*-----------------------------|------------------------------|
|---0---0-0-0-6---0-0-0-6--0-0-|--7----6-7-6-3---3-0-0-3--0-0-|


                                     |-3-|                     
  E.  S S S E.  S S S E  S S    Q    S S S E.  S S S E  S S  3x
-----------------------------|-------------------------------||
-----------------------------|------------------------------*||
-----------------------------|------------------------------*||
--0---0-0-0-6---0-0-0-6--0-0-|--7----6-7-6-3---3-0-0-3--0-0--||


  W                   W                   W                   W                 
-------------------|-------------------|-------------------|-------------------|
-------------------|-------------------|-------------------|-------------------|
-------------------|-------------------|-------------------|-------------------|
--0----------------|--0----------------|--0----------------|--0----------------|


    Q     E  Q     S    S   S   S    S   S   
|-------------------------------------------|
|*-------------------------(9)--------------|
|*----------------(7)h-(8)-----(8)p-(7)-(5)-|
|---0----/4--3------------------------------|


  Q     E  Q     S    S   S   S    S   S       E.  E.  E.  E.  E  E   
-------------------------------------------||------------------------|
-------------------------(9)--------------*||------6---5-------9-----|
----------------(7)h-(8)-----(8)p-(7)-(5)-*||--------------7---------|
--0----/4--3-------------------------------||--0------------------1--|


    Q     E  Q     S    S   S   S    S   S   
|-------------------------------------------|
|*-------------------------(9)--------------|
|*----------------(7)h-(8)-----(8)p-(7)-(5)-|
|---0----/4--3------------------------------|


  Q     E  Q     S    S   S   S    S   S        E.  E.  E.  E.  E  E   3x
-------------------------------------------||--------------------------||
-------------------------(9)--------------*||*------6---5-------9-----*||
----------------(7)h-(8)-----(8)p-(7)-(5)-*||*--------------7---------*||
--0----/4--3-------------------------------||---0------------------1---||


  W                   W.                  H.            E  E  E  E  E  E   
-------------------|-------------------|----------------------------------|
-------------------|-------------------|----------------------------------|
-------------------|-------------------|---------------/7--6--------------|
--0----------------|--L----------------|----------------------8--5--7--7--|


    S S S S S S E  E  E  S S S S S S E  E  E   
|---------------------------------------------|
|*--------------------------------------------|
|*--------------------------------------------|
|---0-0-0-0-0-0-3--3--3--0-0-0-0-0-0-3--3--3--|


  S S S S S S E  E  E  E  E  E  E  E  E     
------------------------------------------||
-----------------------------------------*||
-----------------------7--6--------------*||
--0-0-0-0-0-0-3--3--3--------8--5--7--7---||


   S S S S S S E  E  E  S S S S S S E  E  E   
---------------------------------------------|
*--------------------------------------------|
*--------------------------------------------|
---0-0-0-0-0-0-3--3--3--0-0-0-0-0-0-3--3--3--|


  S S S S S S E  E  E  E  E  E  E  E  E   4x
------------------------------------------||
-----------------------------------------*||
-----------------------7--6--------------*||
--0-0-0-0-0-0-3--3--3--------8--5--7--7---||


   E  S S S S E  S S S S E  S S S S E  S S S S  
-----------------------------------------------|
*----------------------------------------------|
*----------------------------------------------|
---6--6-6-6-6-6--6-6-6-6-1--1-1-1-1-1--1-1-1-1-|


                        Slide(12/14)  +  Slide(9/10)                            
  E  S S S S E  E  E    S                            E     E   S  S     E    E  
--------------------------------------------------------------------------------
--------------------------------------------------------------------------------
----------------------(12)S------------------------(14)--(13)----(9)S-(10)--(9)-
--3--3-3-3-3-7--3--0-------------------------------------------0----------------


  E  S S S S E  S S S S E  S S S S E  S S S S  
----------------------------------------------|
----------------------------------------------|
----------------------------------------------|
--6--6-6-6-6-6--6-6-6-6-1--1-1-1-1-1--1-1-1-1-|


                        Slide(12/14)  +  Slide(9/10)                            
  E  S S S S E  E  E    S                            E     E   S  S     E    E  
--------------------------------------------------------------------------------
--------------------------------------------------------------------------------
----------------------(12)S------------------------(14)--(13)----(9)S-(10)--(9)-
--3--3-3-3-3-7--3--0-------------------------------------------0----------------


  E  S S S S E  S S S S E  S S S S E  S S S S  
----------------------------------------------|
----------------------------------------------|
----------------------------------------------|
--6--6-6-6-6-6--6-6-6-6-1--1-1-1-1-1--1-1-1-1-|


                        Slide(12/14)  +  Slide(9/10)                            
  E  S S S S E  E  E    S                            E     E   S  S     E    E  
--------------------------------------------------------------------------------
--------------------------------------------------------------------------------
----------------------(12)S------------------------(14)--(13)----(9)S-(10)--(9)-
--3--3-3-3-3-7--3--0-------------------------------------------0----------------


  W                H           W                H         
----------------------------|----------------------------|
----------------------------|----------------------------|
----------------------------|----------------------------|
----------------------------|----------------------------|


  W                H           W                H         
----------------------------|----------------------------|
----------------------------|----------------------------|
----------------------------|----------------------------|
----------------------------|----------------------------|


    W                H           W                H         4x
|-----------------------------|-----------------------------||
|*----------------------------|----------------------------*||
|*----------------------------|----------------------------*||
|-----------------------------|-----------------------------||


  Q.     Q.     H.              Q.     Q.     E  H        E   
-----------------------------|-------------------------------|
-----------------------------|-------------------------------|
-----------------------------|-------------------------------|
--0------2------3------------|--7------5------2--2--------L--|


  Q.     Q.     H.              Q.     Q.     E  H        E   
-----------------------------|-------------------------------|
-----------------------------|-------------------------------|
-----------------------------|-------------------------------|
--0------2------3------------|--7------5------2--2--------L--|


    Q.     Q.     Q.     Q.        H        E  S S Q    S  S E  Q     4x
|-------------------------------|-------------------------------------||
|*------------------------------|-----------------------2h-4---------*||
|*------------------------------|--------------0-1-2---------2-------*||
|---0------2------3------5------|--2--------L-------------------3-----||


   Q.     Q.     H.              Q.     Q.     E  H        E   4x
------------------------------|--------------------------------||
*-----------------------------|-------------------------------*||
*-----------------------------|-------------------------------*||
---0------2------3------------|--7------5------2--2--------L---||


   E  S S S S E  S S E  E  S S S S E  S S S S  
----------------------------------------------|
*---------------------------------------------|
*-------------5--5-5---------------3--3-3-x-x-|
---5--5-5-x-x--------0--1--1-1-x-x------------|


  E  S S S S E  S S S S E  S S S S E  S S S S    
-----------------------------------------------||
----------------------------------------------*||
--7--7-7-7-7-8--8-8-8-8-5--5-5-5-5-5--5-5-5-5-*||
-----------------------------------------------||


  E  S S S S E  S S E  E  S S S S E  S S S S  
---------------------------------------------|
---------------------------------------------|
-------------5--5-5---------------3--3-3-x-x-|
--5--5-5-x-x--------0--1--1-1-x-x------------|


  E  S S S S E  S S S S E  S S S S E  S S S S  
----------------------------------------------|
----------------------------------------------|
--7--7-7-7-7-8--8-8-8-8-5--5-5-5-5-5--5-5-5-5-|
----------------------------------------------|


  E  S S S S E  S S E  E  S S S S E  S S S S  
---------------------------------------------|
---------------------------------------------|
-------------5--5-5---------------3--3-3-x-x-|
--5--5-5-x-x--------0--1--1-1-x-x------------|


  E  S S S S E  S S S S E  S S S S E  S S S S  
----------------------------------------------|
----------------------------------------------|
--7--7-7-7-7-8--8-8-8-8-5--5-5-5-5-5--5-5-5-5-|
----------------------------------------------|


    E  S S S S E  S S E  E  S S S S E  S S S S  
|----------------------------------------------|
|*---------------------------------------------|
|*-------------5--5-5---------------3--3-3-x-x-|
|---5--5-5-x-x--------0--1--1-1-x-x------------|


  E  S S S S E  S S S S E  S S S S E  S S S S    
-----------------------------------------------||
----------------------------------------------*||
--7--7-7-7-7-8--8-8-8-8-5--5-5-5-5-5--5-5-5-5-*||
-----------------------------------------------||


  E  S S S S E  S S E  E  S S S S E  S S S S  
---------------------------------------------|
---------------------------------------------|
-------------5--5-5---------------3--3-3-x-x-|
--5--5-5-x-x--------0--1--1-1-x-x------------|


  E  S S S S E  S S S S E  S S S S E  S S S S  
----------------------------------------------|
----------------------------------------------|
--7--7-7-7-7-8--8-8-8-8-5--5-5-5-5-5--5-5-5-5-|
----------------------------------------------|


  E  S S S S E  S S E  E  S S S S E  S S S S  
---------------------------------------------|
---------------------------------------------|
-------------5--5-5---------------3--3-3-x-x-|
--5--5-5-x-x--------0--1--1-1-x-x------------|


  E  S S S S E  S S S S E  S S S S E  S S S S  
----------------------------------------------|
----------------------------------------------|
--7--7-7-7-7-8--8-8-8-8-5--5-5-5-5-5--5-5-5-5-|
----------------------------------------------|


  S S S S S S S S S S S S S S S S S S S S S S S S  
--------------------------------------------------|
--------------------------------------------------|
--6-6-6-6-6-6-6-6-6-6-6-6-------------6-6-6-6-6-6-|
--------------------------6-6-6-6-6-6-------------|


    E  S S S E.  S S S E.  S S S S S S S S S S  
|----------------------------------------------|
|*---------------------------------------------|
|*-------------------------6-6-6-6-6-6-6-6-6-6-|
|---0------------------------------------------|


                                                          <                 
  E  S S S E.  S S S E.  S S S S S S S S S S              W.                
----------------------------------------------||-------|-------------------|
---------------------------------------------*||-------|-------------------|
-------------------------6-6-6-6-6-6-6-6-6-6-*||-------|-------------------|
--0-------------------------------------------||-------|--6----------------|


  E  S S S E.  S S S E.  S S S S S S S S S S  
---------------------------------------------|
---------------------------------------------|
-------------------------6-6-6-6-6-6-6-6-6-6-|
--0------------------------------------------|


  E  S S S E.  S S S E.  S S S S S S S S S S  
---------------------------------------------|
---------------------------------------------|
-------------------------6-6-6-6-6-6-6-6-6-6-|
--0------------------------------------------|


  S S S S S S S S S S S S  S  S  S  S  S  S S S S  S  S  S  
-----------------------------------------------------------|
-----------------------------------------------------------|
--------------7-7-7-7-7-7----------------------------------|
--0-0-0-0-0-0-------------10-10-10-10-10-10-6-7-7-10-10-10-|


  S S S S S S S S S S S S  S  S  S  S  S  S S S S  S  S  S  
-----------------------------------------------------------|
-----------------------------------------------------------|
--------------7-7-7-7-7-7----------------------------------|
--0-0-0-0-0-0-------------10-10-10-10-10-10-6-7-7-10-10-10-|


  S S S S S S S S S S S S  S  S  S  S  S  S S S S  S  S  S  
-----------------------------------------------------------|
-----------------------------------------------------------|
--------------7-7-7-7-7-7----------------------------------|
--0-0-0-0-0-0-------------10-10-10-10-10-10-6-7-7-10-10-10-|


  S S S S S S S S S S S S  S  S  S  S  S  S S S S  S  S  S  
-----------------------------------------------------------|
-----------------------------------------------------------|
--------------7-7-7-7-7-7----------------------------------|
--0-0-0-0-0-0-------------10-10-10-10-10-10-6-7-7-10-10-10-|


    S S S S S S S S S S S S S S S S S S S S S S S S  
|---------------------------------------------------|
|*--------------------------------------------------|
|*--------------5-5-5-5-5-5-------------------------|
|---7-7-7-7-7-7-------------5-5-5-5-5-5-5-5-5-5-5-5-|


  S S S S S S S S S S S S S S S S S S S S S S S S    
---------------------------------------------------||
--------------------------------------------------*||
--------------5-5-5-5-5-5-------------------------*||
--7-7-7-7-7-7-------------5-5-5-5-5-5-5-5-5-5-5-5--||


   S S S S S S S S S S S S  S  S  S  S  S  S S S S  S  S  S  
------------------------------------------------------------|
*-----------------------------------------------------------|
*--------------7-7-7-7-7-7----------------------------------|
---0-0-0-0-0-0-------------10-10-10-10-10-10-6-7-7-10-10-10-|


  S S S S S S S S S S S S  S  S  S  S  S  S S S S  S  S  S    
------------------------------------------------------------||
-----------------------------------------------------------*||
--------------7-7-7-7-7-7----------------------------------*||
--0-0-0-0-0-0-------------10-10-10-10-10-10-6-7-7-10-10-10--||


   S S S S S S S S S S S S S S S S S S S S S S S S  
---------------------------------------------------|
*--------------------------------------------------|
*--------------5-5-5-5-5-5-------------------------|
---7-7-7-7-7-7-------------5-5-5-5-5-5-5-5-5-5-5-5-|


  S S S S S S S S S S S S S S S S S S S S S S S S    
---------------------------------------------------||
--------------------------------------------------*||
--------------5-5-5-5-5-5-------------------------*||
--7-7-7-7-7-7-------------5-5-5-5-5-5-5-5-5-5-5-5--||


  S S S S S S S S S S S S E  Q    E  Q       H.           H.            
------------------------------------------|----------------------------|
------------------------------------------|----------------------------|
--------------5-5-5-5-5-5-----------------|----------------------------|
--7-7-7-7-7-7-------------5--5----5--5----|--7------------3------------|


  Q    S  E  Q    Q    S    Q    S  E  Q    Q    S    Q    S  E  Q    Q    S  
-------------------------|-------------------------|-------------------------|
-------------------------|-------------------------|-------------------------|
-------------------------|-------------------------|-------------------------|
--0----6s-7--3----0------|--0----6s-7--3----0------|--0----6s-7--3----0------|


  Q    S  E  Q    Q    S    Q    S  E  Q    Q    S    Q    S  E  Q    Q    S   
-------------------------|-------------------------|-------------------------||
-------------------------|-------------------------|-------------------------||
-------------------------|-------------------------|-------------------------||
--0----6s-7--3----0------|--0----6s-7--3----0------|--0----6s-7--3----0------||




Duration Legend
---------------
W - whole
H - half
Q - quarter
E - 8th
S - 16th
T - 32nd
X - 64th
. - note dotted
|-n-|  - n-tuplets


Tablature Legend
----------------
L - tied note
x - dead note
g - grace note
(n) - ghost note
> - accentuded note
NH - natural harmonic
AH - artificial harmonic
TH - tapped harmonic
SH - semi harmonic
PH - pitch harmonic
h - hammer on
p - pull off
b - bend
br - bendRelease
pb - preBend
pbr - preBendRelease
brb - bendReleaseBend
\n/ - tremolo bar dip
\n - tremolo bar dive
-/n - tremolo bar Release up
/n\ - tremolo bar inverted dip
/n - tremolo bar return
-\n - tremolo bar Release down
S - shift slide
s - legato slide
/ -  slide into from below or out of upwards
\ -  slide into from above or out of downwards
~ - vibrato
W - wide vibrato
tr - trill
TP - tremolo picking
T - tapping
S - slap
P - pop
< - fade in
^ - brush up
v - brush down

            
            
Suggest correction
Creating personal tab
Creating personal tab
You can edit any tab online and save it as your Personal.

You can edit, replace or remove any tab part or add personal notes – all changes will be seen only by you.

Personal tabs can be accessed anytime from any device, even offline.
Learn more »
Give kudos to tab author, rate the tab!
1 2 3 4 5
comments
print report bad tab
guest
You may want to rate the tab now too:
select rating
Wanna post a correction for this tab? Suggest correction