Oops, an error
Loading. Please wait.

The Drapery Falls Tab

version 3
version 3

Whole song

51,054 views 60 this week
10 commentsread comments
1 2 3 4 5
accurate
x 16
add to favorites
launch autoscroll
font size
0
reset
how to read this tab
guitar tuner
Autoscroll
slow
fast
+/-
esc
set tempo
stop
Help us to improve Ultimate-Guitar.com Take our survey!
×
Contributor
Chords for first Section
------------------

1:-8---6------------------3--
2:-8---6------------------4--
3:-8---6-----8--10--3-3-3-5--
4:-12--10----6--6---3-3-3-5--
5:-10--8-----6--6---1-1-1-3--
6:-8---6---6h7--7-----2-1----

Lead

1:--------------------------------------
2:--8---8h9--8--------------------------
3:-------------10---10/11--10-8---8/10--
4:--------------------------------------
5:--------------------------------------
6:--------------------------------------

1:--------------------------------------------
2:-8---8h9--8---------------------------------
3:------------10---10/11--10-8---8\3------3/5-
4:--------------------------------------------*Slide to A note (7th fret, 4th string) on change
5:--------------------------------------------
6:--------------------------------------------

Change to next part
---------------

1:---|----------------------------
2:-1-|-1-1-1----------------------
3:-2-|-2-2-2--------------8-7-5-6-
4:-2-|-2-2-x-----1-1-3p1----------
5:-0-|-0-0-2p0-2-3-3-3----6-5-3-4-
6:---|----------------------------
     guitar1 (Peter)

1:---|----------------------------
2:---|-10------8------------------
3:---|--------------------8-7-5---
4:/7-|-7-------5----------------4-
5:---|--------------------6-5-3---
6:---|--------------------------2-
     guitar2 (Mikeal)


1:-0-
2:-0-
3:-5-
4:-7-
5:-0-
6:---

Both Guitars (There's an overdub on the album of this chord w/ a 
tremolo effect during the verse)


Verse Part
-----------

1:-0---0-----------|-----------------
2:-0---0--7-8------|-----------------
3:-5---5--5-5----4-|2--/5--/7--\4--(6)
4:-7---7--7-7----6-|2--/5--/7--\4--(7)
5:-0---6--6-6----6-|0---0---0---0--(0)
6:---------------4-|----------------- 
 Mike

Slide Riff (Peter)

1:----------------------------------
2:----------------------------------
3:--2--/5--/7--\4--\2--/5--/7--\6--5
4:----------------------------------
5:----------------------------------
6:----------------------------------

Variation

1:----------------------------------
2:----------------------------------
3:--/7---\5---\2---/7--\5--\2-------
4:----------------------------------
5:----------------------------------
6:----------------------------------

"Pull Me Down Again" Riff
---------------

1:-5--3------1--(0)--(0)-
2:-6--3--0---1---1----3--
3:-7--4--2-1-2---2----4--
4:-7--5--2-2-3---3----5--
5:-5--5--0-2-3-----------
6:----3----0-1-----------


"Ahhhh"  Riff
---------

1:-4-4--3--2--2---
2:-5-5--3--3--2h3-
3:-6-6--4--4--4---
4:-6-6--5--4--4---
5:-4-4--5--2--2---
6:---4--3---------

"Failure Inside" Riff
------------------

1:------------------------------
2:------------------------------
3:---------------------4----4---
4:-6---6--6-6--6-6-----5----5---
5:-6h7-7--7-7--6-6--6--5----5---
6:--------9-9--7-7--6--3--0h3---

1:---------------------------------------------
2:---------------------------------------------
3:---------------------------------------------
4:-6---6--6-6--6-6------4--------------4-------
5:-6h7-7--7-7--6-6--6---4h5p4---4------4h5p4---
6:--------9-9--7-7--6---------7---5-7--------7-


1:---------
2:-9---12-
3:-7---10-
4:-6---9--
5:---------
6:---------
  Mike

1:--------------
2:--------------
3:--------------
4:-6---5--2------
5:(5)-(4)(1)-----
6:-4---3--0------
  Peter

Heaviest Riff on the Planet
------------------

1:------------
2:------------
3:------------
4:-----3------
5:---2-----3--
6:-1-----2----
 Both (1st 4 bars)

1:------------
2:------------
3:------------
4:-----3------
5:---2-----3--
6:-1-----2----
  Peter
1:------------
2:------------
3:------------
4:-----4------
5:---3-----4--
6:-2-----3----
  Mike

1:----------
2:----------
3:----------
4:-3----4--3
5:-2----3--2
6:-1----2--1
  overdub *same rhythm as bass on 1st four bars, listen to cd

1:------------
2:------------
3:------------
4:-3--5--7--9-
5:-3--5--7--9-
6:-1--3--5--7-

"Cossack" Riff
--------

1:-8--------------------7-----------------------
2:-5--------------------4-----------------------
3:-5--------------------4----------7--9--13--14-
4:----------------------------------------------
5:---------------------------------5--7--11--12-
6:----------------------------------------------
 Mike

1:-----------------------------------------------
2:-----------------------------------------------
3:-5----5-----5----5----4----4-----7--7--4-------
4:-7----7-----7----7----6----6-------------------
5:---h7---h7----h7---h7---h7-- h7--5--7--2-------
6:-----------------------------------------------
 Peter

"Old School" Riff
-------------

1:------------------------------------------------------------
2:------------------------------------------------------------
3:------------------------------------------------------------
4:-6---6-6-6--5---5-5-5--4-4---4-4-4-4-4-4-4-4----4-4-4-4-4-4-
5:-6---6-6-6--5---5-5-5--4-4---4-4-4-4-4-4-4-4----4-4-4-4-4-4-
6:-4---0-4-0--3---0-3-0--2-2---0-2-3-2-0-0-2-2----0-2-3-2-0-0-

Fill
1:--------------------------
2:--------------------------
3:--------------------------
4:--4h5p4p0-------------0---
5:----------2p0-----2h4---4-
6:--------------2h3---------
  Mike

"Spiraling" Riff
-------------

Clean Part Chords

Dm C


1:-------------------------------
2:-10--11-8-8--------------------
3:-------------------------------
4:-7---8--5-5--7-7-7-7-7-7-------
5:-------------6-6-0-0-x-x-5-5-5-
6:---------------------6-6-9-9-9-
comments
print report bad tab
10 comments total. Showing first comments.
-1 reply
StreamLine 357 wrote on September 28 2003, 12:00 am

perfect

0 reply
fridge_raider 527 wrote on November 23 2003, 12:00 am

Stream said it all in one word...... this tab is excellent

0 reply
sixstringtoker 40 wrote on December 17 2003, 12:00 am

this is not a pefect tab, its a good start but your missing parts, and some of the parts like the solo, and i can understand but you didnt even mention it ,lol download the video of them dissecting this song, its a 2 part video, you can get it of kazaa, and youll see

I want to post or [tab]
guest
You may want to rate the tab now too:
select rating
Please do not post tabs as comments. Select "correction" instead!