Oops, an error
Loading. Please wait.

The Funeral Portrait tab

version 1
version 1

Whole song

Interactive

by Opeth
1,504 views 6 this week
no commentswrite comment
1 2 3 4 5
1 last vote to show rating
add to favorites
×
Save as Personal and add changes to this tab that will be seen only by you. Learn more ›
×
You can save this tab as Personal to edit and correct it or add notes. All changes will be seen only by you. Learn more »
launch autoscroll
font size
0
reset
how to read this tab
guitar tuner
edit
Autoscroll
slow
fast
+/-
esc
set tempo
stop
Author
Difficulty
Tabber: Lawrence Brown
Email: Loza04@msn.com

Standard Tuning


Intro: 

Twelve String acoustic. Also plays behind main riff.

|--------------------0----------------|
|--------------0--------0-----0-------|
|-----------3-----3--------3-----3----|
|-------2--------------------------2--|
|-------------------------------------|
|--0----------------------------------|



Main Riff: Play eight times

|--------------------------------|
|--------------------------------|
|--------------------------------|
|--2--2-2------------------------|
|--2--2-2----------5---7-7-------|
|--0--0-0-----5/7-----------3h5--|



Main Riff 2:

X3                                  then
|---------------------------------|---------------------------------|
|---------------------------------|---------------------------------|
|---------------------------------|---------------------------------|
|---------------------------------|---------------------------------|
|-----------------8---10-10-------|-----------------8---10-10-------|
|--3--3-3-----6/10-----------6h8--|--3--3-3-----6/10-----------3h5--|

And back to main riff



Twelve String behind main riff two

|--------------------3-----------------|
|--------------3--------3-----3--------|
|-----------6-----6--------6-----6-----|
|--------5--------------------------5--|
|--------------------------------------|
|--3-----------------------------------|



Slight variation on main riff, last time only

|----------------------------------|
|----------------------------------|
|----------------------------------|
|----------------------------------|
|-----------------8---10--10-10----|
|--3--3-3-----6/10--------------0--|



Fill: Guitar one harmony

|--------------------------------------|
|--------------------------------------|
|--------------------------------------|
|--8--8--8--8--8--8--7--7--7--6--6--6--|
|--------------------------------------|
|--6--6--6--6--6--6--5--5--5--4--4--4--|

Guitar two harmony

|--------------------------------------|
|--------------------------------------|
|--6--6--6--6--6--6--5--5--5--4--4--4--|
|--------------------------------------|
|--4--4--4--4--4--4--3--3--3--2--2--2--|
|--------------------------------------|




Rockin riff: X3                  then                          repeat a whole bunch

|------------------------------|---------------------------|
|------------------------------|---------------------------|
|------------------------------|---------------------------|
|--8s7--7--7-8--7---7---5\2-2--|---------------------------|
|--8s7--7--7-8--7---7---5\2-2--|----2---2-----8-7-5--------|
|--6s5--5--5-6--5---5----------|--4---3---0---------5-3-0--|
                                           PM . . . . . .



Slight variation just before the next riff


|-------------------------|
|-------------------------|
|-------------------------|
|-------------------------|
|----2---2-----8-7-5------|
|--4---3---0---------5-0--|
            PM . . . . . 




Awesome Riff:


Guitar one


|--------------------------------------------------------------|
|--------------------------------------------------------------|
|--------------------------------------------------------------|
|------------------------------------------10h9----10----------|
|--------------------------------11---11h12-----12---11-12-----|
|--10-12~-0-0--10-12~-0-0--11h12----12---------------------13--|
PM .      . .  .      . .

|--------------------------------------------------------------|
|--------------------------------------------------------------|
|--------16-16-16--14-14-14------------------------------------|
|----------------------------15-15-15--------------------------|
|--------14-14-14--12-12-12-----------------7h8p7\6h7p6--------|
|--0--0----------------------13-13-13--0--0-------------8-7-0--|
PM                                                      . . .




Guitar two

|-------------------------------------------------------|
|-------------------------------------------------------|
|-------------------------------------------------------|
|-------------------------------------------------------|
|-------------------------------------------------------|
|--10-12~-0-0--10-12~-0-0--11-12-0-0-0-0-0-0-0-0-0-0-0--|
PM .      . .  .      . .  .  .  . . . . .             (gradually pick the last six open notes harder)




|--------------------------------------------------------------|
|--------------------------------------------------------------|
|---------7/9--9--9/10--10--10/14--14--------------------------|
|--------------------------------------------------------------|
|---------5/7--7--7/8---8---8/ 12--12-------7h8p7\6h7p6--------|
|--0--0--------------------------------0--0-------------8-7-0--|
PM                                                      . . .



Fill just before the next riff: Guitar One

--------------------------------------|
||------------------------------------|
|--------------------10---------------|
|--------------------9----------------|
|------7h8p7\6h7p6---8----------------|
|--0-0-------------8---0-6-0-5-0-1p0--|
PM                     . . . . .

Guitar Two

|-------------------------------------|
|-------------------------------------|
|--------------------10---------------|
|-------------------------------------|
|------7h8p7\6h7p6---8----------------|
|--0-0-------------8---0-6-0-5-0-1p0--|
PM                     . . . . .


Next Riff:


Guitar One

                                                     The open G string note isn't hit the same every time.
                                                     It might be accidental ringing as they don't play it live.
|-------------------------------------------------------------------------------|
|-------------------------------------------------------------------------------|
|-----------------------------------------------------------------0--------0----|
|--------6-6---6--6-6-------6-6---6--6-6--------6-6---6--6-6---3--3-3------X----|
|--------7-7---7--7-7-------8-8---8--8-8--------5-5---5--5-5---5--5-5---5--5-5--|
|--0-0-0-----X--------0-0-0-----X---------0-0-0-----X-------------------7--7-7--|
PM . . .              . . .               . . .



Guitar Two


Only play once                                   Slight variation
|-------------------------------------------------|---------------------------------------------------|
|-------------------------------------------------|---------------------------------------------------|
|-------------------------------------------------|---------------------------------------------------|
|--6~--3~--------------------------------------5--|--6~--------------------------------------------5--|
|----------------5~-----------------------7h8-----|----------6/8~------\5~--------------------7h8-----|
|--------------------------4~-------0h4/5---------|-------------------------------4~----0h4/5---------|


Last time


|-----------------------------------|
|-----------------------------------|
|-----------------------------------|
|--6~-------------------------------|
|----------6/8~------\5~------------|
|-------------------------------4~--|




Breakdown:

Both Guitars

|-----------------------------------------------|
|-----------------------------------------------|
|--------0--------0-----------------------------|
|------4--------4-------------------------------|
|----4--------4--------------------------7------|
|--2--------3---------/6--5---3-2--0h5h7---7p5--|



Repeat the riff before a few more times and end on this



Guitar One

|-------------------------------------------------------------------------|
|-------------------------------------------------------------------------|
|-----------------------------------------------------------------0-------|
|-------6-6---6--6-6-------6-6---6--6-6--------6-6---6--6-6---3--3-3---2--|
|-------7-7---7--7-7-------8-8---8--8-8--------5-5---5--5-5---5--5-5---2--|
|--0-0-0----X--------0-0-0-----X--------0-0-0------X-------------------0--|
PM . . .             . . .              . . .


Guitar Two

|-----------------------------------|
|-----------------------------------|
|-----------------------------------|
|--6~-------------------------------|
|----------6/8~------\5~-------/8~--|
|-------------------------------~---| 




Acoustic break. Finger picked. Let every note ring.

|--0---------------------------|
|----0---0---------------------|
|-----10---10---10-------------|
|-------------9----9---9-------|
|--------------------8---8-----|
|---------------------------0--|



Heavy riff: 


Both Guitars

|----------------------------------------------------|
|----------------------------------------------------|
|--7-7-7-7------------------7-7-7----8/9-9--9-9-9----|
|--6-6-6-6------------------6-6-6-----------8-8-8----|
|--5-5-5-5------------------5-5-5----7/8-7--7-7-7----|
|--4-4-4-4--0--10b11-10~--0-4-4-4--0-0---0--6-6-6-0--|




Guitar Rhythm under solo one 


|------------------------3--3-3-3-3--3--3-3-3-3----------------------------------0--------0-----------|
|------------------------3--3-3-3-3--3--3-3-3-3----------------------------------7-7-7----7-7-7-------|
|--9--9-9------7--4--4---3--3-3-3-3--3--3-3-3-3------9--9-9-9-9--11/12\11-9-8-8--8-8-8--8-8-8-8-------|
|--9--9-9--x-x-----------5--5-5-5-5--5--5-5-5-5-----------------------------8-8--8-8-8--8-8-8-8--x-x--|
|--7--7-7--x-x-5--2--2-x-5--5-5-5-5--5--5-5-5-5-x-x--7--7-7-7-7--9 /10\9--7-6-6--6-6-6--6-6-6-6--x-x--|
|------------------------3--3-3-3-3--3--3-3-3-3-0-0---------------------------------------------------|

  

Slight variation the second time


|------------------------3--3-3-3-3--3--3-3-3-3----------------------------------0-0-0----0-0-0-------|
|------------------------3--3-3-3-3--3--3-3-3-3----------------------------------7-7-7----7-7-7-------|
|--9--9-9----7--7\4--4---3--3-3-3-3--3--3-3-3-3------9--9-9-9-9--11/12\11-9-8-8--8-8-8--8-8-8-8-------|
|----------x-------------5--5-5-5-5--5--5-5-5-5-----------------------------8-8--8-8-8--8-8-8-8--x-x--|
|--7--7-7--x-5--5\2--2-x-5--5-5-5-5--5--5-5-5-5-x-x--7--7-7-7-7--9 /10\9--7-6-6--6-6-6--6-6-6-6--x-x--|
|------------------------3--3-3-3-3--3--3-3-3-3-0-0---------------------------------------------------|



Guitar rhythm under solo two


|--0--0-0-0-0---0--0-0-0-0---0--0-0-0-0--0--0-0-0-0---0--0-0---5--5-5---2-2-2-2-2-2-2--2-----|
|--6--6-6-6-6---6--6-6-6-6---5--5-5-5-5--5--5-5-5-5---8--8-8---7--7-7---3-3-3-3-3-3-3--3--0--|
|--7--7-7-7-7---7--7-7-7-7---6--6-6-6-6--6--6-6-6-6---9--9-9---7--7-7---4-4-4-4-4-4-4--4--0--|
|--7--7-7-7-7---7--7-7-7-7---6--6-6-6-6--6--6-6-6-6---9--9-9---7--7-7---4-4-4-4-4-4-4--4--0--|
|--5--5-5-5-5---3--3-3-3-3-x-4--4-4-4-4--0--0-0-0-0-x-7--7-7-x-5--5-5-x-2-2-2-2-2-2-2--2--x--|
|--------------------------------------------------------------------------------------------|



 

Guitar Solos



Peters solo 1


|--15p14----14-------------------------------------------------------------------------------------------|
|--------17----16-17-12-13----12---------------------------------------------------------10/12~-/13------|
|--------------------------14----12-14-11-12-11----------------------9h11p9~---9--11--12------------14~--|
|-----------------------------------------------14p13-------------9--------------------------------------|
|-----------------------------------------------------14p10----10----------------------------------------|
|-----------------------------------------------------------12-------------------------------------------|




|---------12--------12------12-15p12---------------------------15------------------------|
|-------12----15b17---17b15------------15----------------------18b20--17/19-17-19--------|
|--14b16---------------------------------15p14-12-14b15b14-12---------------------14b15--|
|----------------------------------------------------------------------------------------|
|----------------------------------------------------------------------------------------|
|----------------------------------------------------------------------------------------|



Mikaels solo 1


|----------------------------------------------------------14-14h15p14---14------------|
|-------5-6--8p6-5h6------------------------------------16-------------17---16h17------|
|--7p6-7---7---------7--6-6h7p6----------------------16---------------------------16~--|
|-------------------------------7------/14~-14h16-17-----------------------------------|
|--------------------------------8-7~--------------------------------------------------|
|--------------------------------------------------------------------------------------| 


|---------------------------------------------------------------------------|
|---------------------------------------------------------------------------|
|--14~-12h14p12----12-------13~---------------------------------------------|
|---------------15----14h15-----11--------/9~-7-9p7-------------------------|
|----------------------------------11~--------------5/7-5--7b9-7--5-4-5/9~--|
|---------------------------------------------------------------------------|


Peters solo 2


|-------------------------7h10p7-------------15-17b19--17--15--14h15----------------------|
|----------7----------6h7-------8~---------17------------------------17-------------------|
|------7-9-9b11---7/9----------------12/16------------------------------16~h19p16h18p16\--|
|--7/9------------------------------------------------------------------------------------|
|-----------------------------------------------------------------------------------------|
|-----------------------------------------------------------------------------------------|


|----------------------------------------------------------------|
|--------------------------------------------------11----13/15\--|
|---------9--------------------------12p0-12-10/12----12---------|
|-------9--9-8---------------------12----------------------------|
|--7h10--------9-----------9-10-13-------------------------------|
|----------------10-9-7-10---------------------------------------|


|--------------15-19-19p15-------------------------14-18------|
|-----------17-------------17-------------------16------------|
|--------16-------------------16-------------15---------------|
|--14-17-------------------------17-14-13-16-------------13\--|
|-------------------------------------------------------------|
|-------------------------------------------------------------|


Mikaels solo 2


|----------------------------------------------------------|
|--10~-8h10p8---------9~---------7b8b7-5-12~-10h12p10------|
|-------------10-9-10---8-6h8/9-----------------------11~--|
|----------------------------------------------------------|
|----------------------------------------------------------|
|----------------------------------------------------------|
Slight PM     .  .  .


|-----------------------------------------------------12~--|
|--------------9~-7h9p7\5~--8-7h8p7------------------------|
|--\7/10~-/9\7~----------------------9-7~---------9/12-----|
|-----------------------------------------7-7h9~-----------|
|----------------------------------------------------------|
|----------------------------------------------------------|

Let ring

|-----|
|-----|
|-----|
|--2--|
|--2--|
|--0--|




Acoustic break, same as intro


Still plays behind main riff

|--------------------0----------------|
|--------------0--------0-----0-------|
|-----------3-----3--------3-----3----|
|-------2--------------------------2--|
|-------------------------------------|
|--0----------------------------------|



Main Riff: Play eight times


|--------------------------------|
|--------------------------------|
|--------------------------------|
|--2--2-2------------------------|
|--2--2-2----------5---7-7-------|
|--0--0-0-----5/7-----------3h5--|



Main Riff 2:


X3                                  then
|---------------------------------|---------------------------------|
|---------------------------------|---------------------------------|
|---------------------------------|---------------------------------|
|---------------------------------|---------------------------------|
|-----------------8---10-10-------|-----------------8---10-10-------|
|--3--3-3-----6/10-----------6h8--|--3--3-3-----6/10-----------3h5--|


And back to main riff and then repeat main riff two four more times



Twelve String behind main riff two


|--------------------3-----------------|
|--------------3--------3-----3--------|
|-----------6-----6--------6-----6-----|
|--------5--------------------------5--|
|--------------------------------------|
|--3-----------------------------------|


Then


X3
|-----------------------------------------------|
|-----------------------------------------------|
|--------0--------0-----------------------------|
|------4--------4-------------------------------|
|----4--------4--------------------------7------|
|--2--------3---------/6--5---3-2--0h5h7---7p5--|



Last time time only 

|-----------------------------------------------|
|-----------------------------------------------|
|--------0--------0-----------------------------|
|------4--------4-------------------------------|
|----4--------4--------------------------5h7/9--|
|--2--------3---------/6--5---3-2--0h5h7--------|


Bridge Riff


Both Guitars


|---------------------------------------------------------------------------------------------------------|
|-----0----------------0------------0----------------0------------0-5--5-5--0-1--1-1--0-0--0-0--0--0-0-0--|
|-----9-9-9-9--9/12-12-12-12-12-12--12--12-12-12-12--12-12-12-12--0-5--5-5--0-2--2-2--0-2--2-2--2--2-2-0--|
|-----9-9-9-9--9-12-12-12-12-12-12--11--11-11-11-11--10-10-10-10--0-7--7-7--0-3--3-3--0-1--1-1--1--1-1-0--|
|-----7-7-7-7--7/10-10-10-10-10-10--10--10-10-10-10--10-10-10-10--X-7--7-7--X-3--3-3--X-2--2-2--2--2-2-X--|
|--0-----------0--------------------0----------------0--------------5--5-5----1--1-1----------------------|




Outro Riff: play this until the end


Both Guitars



|------0-----------0------0----0------------------------5--5-5\4--4--4-4----------------------|
|------13-13-13\12-12--12-12---10--10-10--------------0-5--5-5\4--4--4-4----------------------|
|------14-14-14\13-13--13-13-x-11--11-11-x--\7-7--7-7-0-5--5-5\5--5--5-5----------------------|
|--14--14-14-14\13-13--13-13-x-11--11-11-x------------x-7--7-7\6--6--6-6----9--9-9\7-7--7-7/--|
|--0-------------------------0-----------0--\5-5--5-5---7--7-7\6--6--6-6----7--7-7---7--7-7/--|
|-------------------------------------------------------5--5-5\4--4--4-4/5--5--5-5---5--5-5/--|


Outro solo


Peter


|--12p8-----------------7---9p5----------------------8-10-11p7-----------------------|
|------10-------------9---9-----7------------------10----------9---------------------|
|---------9---------8-------------6--------------9---------------8-------------------|
|----------10\7-6h9-----------------7-4-3~-/7h10-------------------9---9--9-9h10\7~--|
|--------------------------------------------------------------------11--------------|
|------------------------------------------------------------------------------------|



|-5p0-5p0-5p0-7p0-7p0-7p0-8p0-8p0-8p0-10p0-10p0-10p0------8---------------------0--|
|----------------------------------------------------------------9------------1----|
|-----------------------------------------------------7/9---9--8----8\--2/4\2------|
|----------------------------------------------------------------------------------|
|----------------------------------------------------------------------------------|
|----------------------------------------------------------------------------------|


(Harmony guitar for the pull off part above)



|-8p0-8p0-8p0-10p0-10p0-10p0-12p0-12p0-12p0-15p0-15p0-15p0--|
|-----------------------------------------------------------|
|-----------------------------------------------------------|
|-----------------------------------------------------------|
|-----------------------------------------------------------|
|-----------------------------------------------------------|


|--------------------------------------------------------------------------|
|--------------------------------------------------------------------------|
|-------------------------------9---------12p11-9-11-9---------------------|
|------------------9-10-9-10-12---12-10-9--------------12-10h12p10-9-10-9--|
|---------12-11-12---------------------------------------------------------|
|--------------------------------------------------------------------------|
Slight PM .  .  .  . .  .          .  .                     .    . 


|---------------------------------------------------------|
|---------------------------------------------------------|
|------------------------------9--------------14p13-------|
|-----------------9-10-9-10-12---12-10-9-----------14-----|
|---------12-11-12------------------------12----------15--|
|---------------------------------------------------------|
Slight PM .  .  . . .  .  .      .  .  .

                                                                           
                                                                                      
|--------------------------------------------12----------15p14-12-14-12--------------|
|-----------------------------12-13-12-13-15----15-13p12----------------15-13h15-12--|
|-----------------12-14-13-14--------------------------------------------------------|
|-----------12-14--------------------------------------------------------------------|
|--12-14-15--------------------------------------------------------------------------|
|------------------------------------------------------------------------------------|


(Harmony guitar for the above run)

|--------------------------------12----12-13-15-13-12----19-17-15-17-15-14----14-----|
|-----------------12-13-12-13-15----15----------------15-------------------17----15--|
|-----------12-14--------------------------------------------------------------------|
|--10h12h14--------------------------------------------------------------------------|
|------------------------------------------------------------------------------------|
|------------------------------------------------------------------------------------|


                      Slow bend
|----------17--20p17----17-----|
|-------17-----------20-20b22--|
|--19b21-----------------------|
|------------------------------|
|------------------------------|
|------------------------------|








| /  slide up
| \  slide down
| h  hammer-on
| p  pull-off
| ~  vibrato
| +  harmonic
| t  trill
| .  palm mute
| x  mute note

            
            
Suggest correction
Creating personal tab
Creating personal tab
You can edit any tab online and save it as your Personal.

You can edit, replace or remove any tab part or add personal notes – all changes will be seen only by you.

Personal tabs can be accessed anytime from any device, even offline.
Learn more »
Give kudos to tab author, rate the tab!
1 2 3 4 5
comments
print report bad tab
guest
You may want to rate the tab now too:
select rating
Wanna post a correction for this tab? Suggest correction