Oops, an error
Loading. Please wait.

The Grand Conjuration tab

version 2
version 2

Whole song

Interactive

by Opeth
35,840 views 48 this week
18 commentsread comments
1 2 3 4 5
x 22
add to favorites
×
Save as Personal and add changes to this tab that will be seen only by you. Learn more ›
×
You can save this tab as Personal to edit and correct it or add notes. All changes will be seen only by you. Learn more »
launch autoscroll
font size
0
reset
how to read this tab
guitar tuner
backing track
0:00
0:00
edit
Autoscroll
slow
fast
+/-
esc
set tempo
stop
Tuning Drop D (D,A,D,F#,A,D,)

[Intro]
D |---0--0----0--0-----0--0----0--0----0--0----0--0---0-0----0-0----0-0----|
A |--12-12---12-12----12-12---11-11---11-11---11-11---8-8----8-8----8-8----|
F#|------------------------------------------------------------------------|
D |------------------------------------------------------------------------|
A |--------0-------0--------0-------0-------0-------0------0-----0------0--|
D |--------0-------0--------0-------0-------0-------0------0-----0------0--|
           *       *        *       *       *       *      *     *      *

[Fills]

  (Gtr 2)        (Gtr 1)
D |--0-0~~--|--------------|
A |--5-5~~--|--------------|
F#|---------|--------------|
D |---------|--------------|
A |---------|--0-0-12-12/--|
D |---------|--0-0-12-12/--|
             * *

[Riff 1]                                (Fill)
D |------------------------------------|--<12>~~~~---|------------------------|
A |------------------------------------|-------------|------------------------|
F#|------------------------------------|-------------|------------------------|
D |------------------------------------|-------------|--2ph~~~~---------------|
A |--1-0-4~--5-4-7~--12-10-6~--7-6-0~--|-------------|------------------------|
D |--1-0-4~--5-4-7~--12-10-6~--7-6-0~--|-------------|------------------------|

[Verse] 
(Clean) 
  (Gtr 1)                                   (Gtr 2)
D |-----------------------------------------|--10----------|
A |-----------------------------------------|----------12--|
F#|-----------------------------------------|-----11-------|
D |-----------------------------------------|-------12-----|
A |-----------------------------------------|--------------|
D |--0-1-0----0-1-0----0-1-0----12-10-6-----|--------------|

[Chorus]
D |---------------------|--------------------------------------|
A |---------------------|--------------------------------------|
F#|---------------------|--------------------------------------|
D |---------------------|--------------------------------------|
A |----------------12/--|--0-0-0-0-0-0-0------00-----00--12/---|
D |--0h1-1--0h1-1--12/--|--0-0-0-0-0-0-0--1p0-00-1p0-00--12/---|
                                            **     **

[Verse] 
(Clean) 
  (Gtr 1)                                   (Gtr 2)
D |-----------------------------------------|--10----------|
A |-----------------------------------------|----------12--|
F#|-----------------------------------------|-----11-------|
D |-----------------------------------------|-------12-----|
A |-----------------------------------------|--------------|
D |--0-1-0----0-1-0----0-1-0----12-10-6-----|--------------|

[Chorus]
D |---------------------|--------------------------------------|
A |---------------------|--------------------------------------|
F#|---------------------|--------------------------------------|
D |---------------------|--------------------------------------|
A |----------------12/--|--0-0-0-0-0-0-0------00-----00--12/---|
D |--0h1-1--0h1-1--12/--|--0-0-0-0-0-0-0--1p0-00-1p0-00--12/---|
                                            **     **

[Interlude]
(Riff 2)
D |-----------------------------------------------|
A |-----------------------------------------------|
F#|-----------------------------------------------|
D |------0-----0-----0---------0---0---0---0---0--|
A |-----------------------------------------------|
D |--0h1---1/3---3/7---6/11-12---7---6---3---1----|

(Riff 3)
D |-------------------------------|------------------------------|
A |-------------------------------|------------------------------|
F#|-------------------------------|------------------------------|
D |-------------------------------|------------------------------|
A |------2---4~--------8~-----6~--|------2---4~------------------|
D |--0h1---3-------6-7----8-9-----|--0h1---3-----5h6-6~--8h9-9~--|

(Clear riff)
D |--------------------|-------9~--11~--|------15~--13~--|----------------|
A |--------------------|----------------|----12---15-----|----------------|
F#|--------------------|----10---12-----|--15------------|----------------|
D |--------------------|--12------------|----------------|----------------|
A |--66--0--55--0------|----------------|----------------|--5/6/6~-8/9-9~-|
D |--66--3--55--1--3~--|----------------|----------------|--5/6-6~-8/9-9~-|
   **     **

D |--------------------|---------|-----|--FADE IN--|
A |--------------------|---------|-----|-----------|
F#|--------------------|--DRUMS--|-----|-----------|
D |-----2-----1--3-----|---------|-----|-----------|
A |--55-2--44-1--3--0--|---------|--0--|--0~~------|
D |--55-2--44-1--3--0--|---------|--0--|--0~~------|

(Riff 4) (x7)
D |--------------------------------------------------|
A |--------------------------------------------------|
F#|--------------------------------------------------|
D |--------------------------------------------------|
A |-----------------------------------------------7--|
D |--5h7-7-8-7----7-10-8-7----5h7-7-8-7----10-8-7----|

(Riff 5) (x4)
D |------------|----------|-----------|
A |------------|----------|-----------|
F#|------------|----------|-----------|
D |------------|----------|-----------|
A |--3h5-550~--|--3-5-0~--|--3-5-6-5--|
D |--3h5-550~--|--3-5-0~--|--3-5-6-5--|

(Riff 6) (x4)
D |-----------------------------------------------------|
A |-----------------------------------------------------|
F#|-----------------------------------------------------|
D |--5h7-7-8-7-----7-8-7-7-7----5h7-7-8-7----8-7-5-5h7--|
A |-----------------------------------------------------|
D |-----------------------------------------------------|

(Riff 7) (x4)
D |--------------------------------------------------|
A |--------------------------------------------------|
F#|--------------------------------------------------|
D |--------------------------------------------------|
A |-----------------------------------------------7--|
D |--5h7-7-8-7----7-10-8-7----5h7-7-8-7----10-8-7----|

(Riff 8) (same as intro slightly different timing)  
D |---0--0----0--0-----0--0----0--0----0--0----0--0---0-0----0-0----0-0----|
A |--12-12---12-12----12-12---11-11---11-11---11-11---8-8----8-8----8-8----|
F#|------------------------------------------------------------------------|
D |------------------------------------------------------------------------|
A |--------0-------0--------0-------0-------0-------0------0-----0------0--|
D |--------0-------0--------0-------0-------0-------0------0-----0------0--|
         *       *        *       *       *       *      *     *      *

                   (Gtr 2)
D |---------------|--19~~~~18~~~~15~~~~12~~~~]
A |---------------|--------------------------|
F#|---------------|--------------------------|
D |---------------|--------------------------|
A |--0-0-12-12/---|--------------------------|
D |--0-0-12-12/---|--------------------------|
   * *

[Riff 1]                                (Fill)
D |------------------------------------|--<12>~~~~---|------------------------|
A |------------------------------------|-------------|------------------------|
F#|------------------------------------|-------------|------------------------|
D |------------------------------------|-------------|--2ph~~~~---------------|
A |--1-0-4~--5-4-7~--12-10-6~--7-6-0~--|-------------|------------------------|
D |--1-0-4~--5-4-7~--12-10-6~--7-6-0~--|-------------|------------------------|

[Verse] (x2)
(Clean) 
  (Gtr 1)                                   (Gtr 2)
D |-----------------------------------------|--10----------|
A |-----------------------------------------|----------12--|
F#|-----------------------------------------|-----11-------|
D |-----------------------------------------|-------12-----|
A |-----------------------------------------|--------------|
D |--0-1-0----0-1-0----0-1-0----12-10-6-----|--------------|

    RIFF 9 X2 (SAME AS RIFF 1 BUT SLOWER PACE)
D |-------------------------------------------------|
A |-------------------------------------------------|
F#|-------------------------------------------------|
D |-------------------------------------------------|
A |--1-0-4~------5-4-7~------12-10-6~------7-6-0~---|
D |--1-0-4~------5-4-7~------12-10-6~------7-6-0~---|

    RIFF 1 NORMAL PACE(X1 CLEAN,2ND TIME END DISTORTED)
D |------------------------------------|
A |------------------------------------|
F#|------------------------------------|
D |------------------------------------|
A |--1-0-4~--5-4-7~--12-10-6~--7-6-0~--|
D |--1-0-4~--5-4-7~--12-10-6~--7-6-0~--|

[Riff 1] (x4)                             (Fill)
D |------------------------------------|--<12>~~~~---|------------------------|
A |------------------------------------|-------------|------------------------|
F#|------------------------------------|-------------|------------------------|
D |------------------------------------|-------------|--2ph~~~~---------------|
A |--1-0-4~--5-4-7~--12-10-6~--7-6-0~--|-------------|------------------------|
D |--1-0-4~--5-4-7~--12-10-6~--7-6-0~--|-------------|------------------------|

(Riff 10)
D |-----------------------------------------------------------|
A |-----------------------------------------------------------|
F#|-----------------------------------------------------------|
D |-----------------------------------------------------------|
A |--1-0-4~--5-4-7~--12-10-6~---------------------------------|
D |--1-0-4~--5-4-7~--12-10-6~----2-1-0--4-1-0--6-1-0--/13-12--|
                               * * *  * * *  * * *  

[Riff 1]                                (Fill)
D |------------------------------------|--<12>~~~~---|------------------------|
A |------------------------------------|-------------|------------------------|
F#|------------------------------------|-------------|------------------------|
D |------------------------------------|-------------|--2ph~~~~---------------|
A |--1-0-4~--5-4-7~--12-10-6~--7-6-0~--|-------------|------------------------|
D |--1-0-4~--5-4-7~--12-10-6~--7-6-0~--|-------------|------------------------|

(Riff 10)
D |-----------------------------------------------------------|
A |-----------------------------------------------------------|
F#|-----------------------------------------------------------|
D |-----------------------------------------------------------|
A |--1-0-4~--5-4-7~--12-10-6~---------------------------------|
D |--1-0-4~--5-4-7~--12-10-6~----2-1-0--4-1-0--6-1-0--/13-12--|
                               * * *  * * *  * * *  

[Riff 1] (x2)                             (Fill)
D |------------------------------------|--<12>~~~~---|------------------------|
A |------------------------------------|-------------|------------------------|
F#|------------------------------------|-------------|------------------------|
D |------------------------------------|-------------|--2ph~~~~---------------|
A |--1-0-4~--5-4-7~--12-10-6~--7-6-0~--|-------------|------------------------|
D |--1-0-4~--5-4-7~--12-10-6~--7-6-0~--|-------------|------------------------|

[Outro]
D |----<12>~~~~---|------------------------|
A |---------------|------------------------|
F#|---------------|------------------------|
D |---------------|--2ph~~~~---------------| 
A |---------------|------------------------|
D |---------------|------------------------|


************************************

| ~  Vibrato
| /  Slide up
| h  Hammer-on
| p  Pull-off

************************************
Suggest correction
Creating personal tab
Creating personal tab
You can edit any tab online and save it as your Personal.

You can edit, replace or remove any tab part or add personal notes – all changes will be seen only by you.

Personal tabs can be accessed anytime from any device, even offline.
Learn more »
comments
print report bad tab
18 comments total. Showing first comments.
+2 reply
Nightfyre 60 Sep 05, 2007 05:57 AM

Thats Dm open, not drop D. Naming mistake, that's all. But at least somebody wrote it in the correct tuning... and it looks about right. Good tab!

0 reply
Nightfyre 60 Sep 05, 2007 06:02 AM

Need to tab the solo plz...

0 reply
Nightfyre 60 Sep 05, 2007 07:33 PM

I'll give it a 5* once you put the solo on here... i can pass it on to you if you like, but it'll be a few days.

guest
You may want to rate the tab now too:
select rating
Wanna post a correction for this tab? Suggest correction