Oops, an error
Loading. Please wait.

The Wilde Flowers Tab

3,091 views 60 this week
1 commentread comment
1 2 3 4 5
x 4
add to favorites
launch autoscroll
font size
0
reset
how to read this tab
guitar tuner
×
Best way to learn
"The Wilde Flowers"
Autoscroll
slow
fast
+/-
esc
set tempo
stop
Author
Difficulty
  follow
intermediate
e|------------------------------------|---------------------------------------|
B|------------------------------------|---------------------------------------|
G|--------6-6-------------------------|--------6-6----------------------------|
D|---5-5--5-5--5---------6-5-3--------|---5-5--5-5----------/5-8-7------------|
A|---5-5--4-4--5---------------5-2----|---5-5--4-4----------------------------|
E|---3-3-------3-/6-5-3------------4--|---3-3-------/3-6-5--------------------|


************************************

| /   Slide up


************************************
Suggest correction
comments
print report bad tab
1 comment total.
0 reply
rolandrauvala 20 Dec 17, 2016 08:06 PM

next part

e|------------------------------------------------------------|
B|------------------------------------------------------------|
G|-----------------5---5p7p5--5-4------3-----3----------------|
D|---------5---5-6---6------6-----6/5----5--------------------|
A|-----------------------------------------4---4-3b------3----|
E|-3-1-3-3---3------------------------------------------------|

guest
You may want to rate the tab now too:
select rating
Wanna post a correction for this tab? Suggest correction