Oops, an error
Loading. Please wait.

The Wilde Flowers tab

version 1
version 1

Whole song

  • Here is the guitar tab for the song The Wilde Flow... Show more
by Opeth
1,207 views 57 this week
no commentswrite comment
1 2 3 4 5
x 6
add to favorites
×
Save as Personal and add changes to this tab that will be seen only by you. Learn more ›
×
You can save this tab as Personal to edit and correct it or add notes. All changes will be seen only by you. Learn more »
launch autoscroll
font size
0
reset
how to read this tab
guitar tuner
edit
Autoscroll
slow
fast
+/-
esc
set tempo
stop
About this tab version
Here is the guitar tab for the song The Wilde Flowers by Opeth from their latest album Sorceress, which released on 30 September 2016. The tab includes everything except the 2 solos. Was this info helpful? Yes No
Title: The Wilde Flowers
Artist: Opeth
Album: Sorceress


[Verse 1] 

e|---------------------------------------------------------------------------|
B|---------------------------------------------------------------------------|
G|--------------6-----6------------------------------------------------------|
D|--5-----5-----5-----5-----5----------------6--5--3-------------------------|
A|--5-----5-----4-----4-----5-------------------------5--2-------------------|
E|--3-----3----(3)---(3)----3----\6---5---3-----------------4----------------|

                                            PH 
e|---------------------------------------------------------------------------|
B|---------------------------------------------------------------------------|
G|--------------6-----6------------------------------------------------------|
D|--5-----5-----5-----5---------------\5--8--7~------------------------------|
A|--5-----5-----4-----4------------------------------------------------------|
E|--3-----3----(3)---(3)----3--6--5~-----------------------------------------|   
                                                                                    x4

[Instrumental part] 
                                                                 PH
e|---------------------------------------------------------------------------|
B|---------------------------------------------------------------------------|
G|--------------------5---5h--7p-5----5p--4-------3-----3--------------------|
D|---------------5--6---6-----------6-------6--5----5-----5------------------|
A|----------------------------------------------------4-----3----3-----------|
E|--3--1h--3--3--------------------------------------------------------------|
                                                                                    x4

[Verse 2]

This is probably played by bass and keyboards only.
e|-----------------|---------------------------------------------------------|
B|-----------------|---------------------------------------------------------|
G|-----------------|------7--5--4-----------4--5--4--------------------------|
D|-----------------|---------------6--5--6-----------6--5--3-----------------|
A|-----------------|---------------------------------------------------------|
E|-----------------|--3------------------------------------------------------|

                                            PH 
e|---------------------------------------------------------------------------|
B|---------------------------------------------------------------------------|
G|--------------6-----6------------------------------------------------------|
D|--5-----5-----5-----5---------------\5--8--7~------------------------------|
A|--5-----5-----4-----4------------------------------------------------------|
E|--3-----3----(3)---(3)----3--6--5~-----------------------------------------|
                                                                                    x1
e|---------------------------------------------------------------------------|
B|---------------------------------------------------------------------------|
G|--------------6-----6------------------------------------------------------|
D|--5-----5-----5-----5-----5----------------6--5--3-------------------------|
A|--5-----5-----4-----4-----5-------------------------5--2-------------------|
E|--3-----3----(3)---(3)----3----\6---5---3-----------------4----------------|

                                            PH 
e|---------------------------------------------------------------------------|
B|---------------------------------------------------------------------------|
G|--------------6-----6------------------------------------------------------|
D|--5-----5-----5-----5---------------\5--8--7~------------------------------|
A|--5-----5-----4-----4------------------------------------------------------|
E|--3-----3----(3)---(3)----3--6--5~-----------------------------------------|   
                                                                                    x3


[Chorus 1]

e|---------------------------------------------------------------------------|
B|---------------------------------------------------------------------------|
G|-------------(6)--(6)---(7)---x--(6)---(6)---------------------------------|
D|--5-----x--x--7----7-----8----x---7-----7----------------------------------|
A|--5-----x--x--4----4-----5----x---4-----4----------------------------------|
E|--3-----x--x--5----5-----6----x---5-----5----------------------------------|

e|---------------------------------------------------------------------------|
B|---------------------------------------------------------------------------|
G|-------------(6)--(6)--------------(6)---(6)-------------------------------|
D|--5-----x--x--7----7-----5----x--x--7-----7--------------------------------|
A|--5-----x--x--4----4-----5----x--x--4-----4--------------------------------|
E|--3-----x--x--5----5-----3----x--x--5-----5--------------------------------|

e|---------------------------------------------------------------------------|
B|---------------------------------------------------------------------------|
G|-------------(6)--(6)---(7)---x--(6)---(6)---------------------------------|
D|--5-----x--x--7----7-----8----x---7-----7----------------------------------|
A|--5-----x--x--4----4-----5----x---4-----4----------------------------------|
E|--3-----x--x--5----5-----6----x---5-----5----------------------------------|

e|---------------------------------------------------------------------------|
B|---------------------------------------------------------------------------|
G|-------------(6)--(6)--------------(6)-------------------------------------|
D|--5-----x--x--7----7-----5----x--x--7--------------------------------------|
A|--5-----x--x--4----4-----5----x--x--7--------------------------------------|
E|--3-----x--x--5----5-----3----x--x--5--------------------------------------|
                                                                                    x1

[Solo 1]
Here comes the first solo, in which there is no rythm guitar.


[Solo 2]
Then comes the second solo and the rythm guitar plays (like Verse 1):

e|---------------------------------------------------------------------------|
B|---------------------------------------------------------------------------|
G|--------------6-----6------------------------------------------------------|
D|--5-----5-----5-----5-----5----------------6--5--3-------------------------|
A|--5-----5-----4-----4-----5-------------------------5--2-------------------|
E|--3-----3----(3)---(3)----3----\6---5---3-----------------4----------------|

                                            PH 
e|---------------------------------------------------------------------------|
B|---------------------------------------------------------------------------|
G|--------------6-----6------------------------------------------------------|
D|--5-----5-----5-----5---------------\5--8--7~------------------------------|
A|--5-----5-----4-----4------------------------------------------------------|
E|--3-----3----(3)---(3)----3--6--5~-----------------------------------------|   
                                                                                    x4

[Chorus 2]

e|---------------------------------------------------------------------------|
B|---------------------------------------------------------------------------|
G|-------------(6)--(6)---(7)---x--(6)---(6)---------------------------------|
D|--5-----x--x--7----7-----8----x---7-----7----------------------------------|
A|--5-----x--x--4----4-----5----x---4-----4----------------------------------|
E|--3-----x--x--5----5-----6----x---5-----5----------------------------------|

e|---------------------------------------------------------------------------|
B|---------------------------------------------------------------------------|
G|-------------(6)--(6)--------------(6)---(6)-------------------------------|
D|--5-----x--x--7----7-----5----x--x--7-----7--------------------------------|
A|--5-----x--x--4----4-----5----x--x--4-----4--------------------------------|
E|--3-----x--x--5----5-----3----x--x--5-----5--------------------------------|

e|---------------------------------------------------------------------------|
B|---------------------------------------------------------------------------|
G|-------------(6)--(6)---(7)---x--(6)---(6)---------------------------------|
D|--5-----x--x--7----7-----8----x---7-----7----------------------------------|
A|--5-----x--x--4----4-----5----x---4-----4----------------------------------|
E|--3-----x--x--5----5-----6----x---5-----5----------------------------------|

e|---------------------------------------------------------------------------|
B|---------------------------------------------------------------------------|
G|-------------(6)--(6)------------------------------------------------------|
D|--5-----x--x--7----7-----5--5--5-------------------------------------------|
A|--5-----x--x--4----4-----5--5--5-------------------------------------------|
E|--3-----x--x--5----5-----3--3--3-------------------------------------------|
                                                                                    x1

[Bridge]

e|---------------------------------------------------------------------------|
B|------------------------------------------------------------6--------------|
G|--5h-7p-5p-4--5p-4---4---4h-5--4--4h-5/--8~---4/--5/--7/--8----8\-7\-5--4~-|
D|-------------------5---5---------------------------------------------------|
A|---------------------------------------------------------------------------|
E|---------------------------------------------------------------------------|

e|---------------------------------------------------------------------------|
B|--------------------------------------------------6/--8--9---8\--6---------|
G|--5h-7p-5p-4--5p-4--4h-5p-4-----4---------------5------------------5\--3---|
D|----------------------------6-5---6-5-3-5---3----------------------------6-|
A|---------------------------------------------------------------------------|
E|---------------------------------------------------------------------------|
                                                                                    x4

e|-----------------|------------3-----------3-----------3--------------------|
B|-----------------|--------------3-----------3-----------3------------------|
G|-----------------|----------------5-----------5-----------5----------------|
D|-----------------|---------5--------5-----------5-----------5--------------|
A|-----------------|---------------------------------------------------------|
E|--(3)------------|--(3)----------------------------------------------------|
                                                                                    x8


[Outro]

Not sure about this one
e|------3---3---------3-----------3-------3----3----3-----3----3-------------|
B|------------3-----3-----------3---3---3----3----3-----3----3---3-----------|
G|---------------------------------------------------------------------------|
D|----5---5-----5---------------------5--------------------------------------|
A|----------------4-------------------------5----4---------------------------|
E|--3-------------------6p--5--3-----------------------4----3----------------|
                                                                                    x2
e|---------------------------------------------------------------------------|
B|---------------------------------------------------------------------------|
G|---------------------------------------------------------------------------|
D|---------------------------------------------------------------------------|
A|---------------------------------------------------------------------------|
E|--3---9s--6p--5--3~----15s----10----9----4----3~---------------------------|
                                                                                    x4


************************************

| x   Dead note 
|(n)  Ghost note 
| h   Hammer-on
| p   Pull-off
| /   Slide up
| \   Slide down  
| ~   Vibrato 
| PH  Pinch harmonic

************************************

            
            
Suggest correction
Creating personal tab
Creating personal tab
You can edit any tab online and save it as your Personal.

You can edit, replace or remove any tab part or add personal notes – all changes will be seen only by you.

Personal tabs can be accessed anytime from any device, even offline.
Learn more »
comments
print report bad tab
guest
You may want to rate the tab now too:
select rating
Wanna post a correction for this tab? Suggest correction