Oops, an error
Loading. Please wait.

To Bid You Farewell bass

version 2
version 2
by Opeth
2,826 views 3 this week
2 commentsread comments
1 2 3 4 5
x 4
add to favorites
×
Save as Personal and add changes to this tab that will be seen only by you. Learn more ›
×
You can save this tab as Personal to edit and correct it or add notes. All changes will be seen only by you. Learn more »
launch autoscroll
font size
0
reset
guitar tuner
backing track
0:00
0:00
edit
Autoscroll
slow
fast
+/-
esc
set tempo
stop
Author
Difficulty
#----------------------------------PLEASE NOTE---------------------------------#
#This file is the author's own work and represents their interpretation of the #
#song. You may only use this file for private study, scholarship, or research. #
#------------------------------------------------------------------------------##

                               TO BID YOU FAREWELL 
                              As recorded by Opeth
                        (From the 1996 Album MORNINGRISE)

Words by Mikael Åkerfeldt

Music by Mikael Åkerfeldt & Peter Lindgren
Transcribed by Erik Dietrich

Gtr I (B E A D G C) - 'Untitled'

 --*Intro*--
  Q=145
 4/4
  Gtr I
  Wx8
|--------|
|--------|
|--------|
|--------|
|--------|
|--------|


  H..       E   q  H    Q    H..       E   E E Q  E E Q
|-------------|------------|-------------|----------------|
|-------------|------------|-------------|----------7-----|
|-------------|------------|-------------|--------7---7\--|
|-------------|------------|-------------|-5s7-5----------|
|-0---------x-|-0--0----0--|-----------5-|----------------|
|-------------|------------|-3-----------|----------------|


   Q.   E E  E  Q     +H.      S S E   Q.   E E E Q    +W
|------------------|-----------------|---------------|--------|
|-/9------9s12-11--|-(11)------7h9p7-|---------------|--------|
|-------9----------|-----------------|-9----9-9------|--------|
|------------------|-----------------|----------9----|--------|
|------------------|-----------------|------------7--|-(7)----|
|------------------|-----------------|---------------|--------|


  H..       E   q  H    Q    H..       E   E E Q  E E Q
|-------------|------------|-------------|----------------|
|-------------|------------|-------------|----------7-----|
|-------------|------------|-------------|--------7---7\--|
|-------------|------------|-------------|-5s7-5----------|
|-0---------x-|-0--0----0--|-----------5-|----------------|
|-------------|------------|-3-----------|----------------|


   Q.   E E  E  Q     +H.      S S E   Q.   E E E Q    +W
|------------------|-----------------|---------------|--------|
|-/9------9s12-11--|-(11)------7h9p7-|---------------|--------|
|-------9----------|-----------------|-9----9-9---9--|-(9)----|
|------------------|-----------------|----------9----|--------|
|------------------|-----------------|---------------|--------|
|------------------|-----------------|---------------|--------|


  H..       E   Q  H    E E   H..       E   E E Q  E E Q
|-------------|-------------|-------------|----------------|
|-------------|-------------|-------------|----------7-----|
|-------------|-------------|-------------|--------7---7\--|
|-----------5h|=7-------5h7-|-------------|-5s7-5----------|
|-0-----------|----0--------|-----------5-|----------------|
|-------------|-------------|-3-----------|----------------|


   Q.   E E  E  Q     +H.      S S E   Q.   E E E Q    +W
|------------------|-----------------|---------------|--------|
|-/9------9s12-11--|-(11)------7h9p7-|---------------|--------|
|-------9----------|-----------------|-9----9-9------|--------|
|------------------|-----------------|----------9----|--------|
|------------------|-----------------|------------7--|-(7)----|
|------------------|-----------------|---------------|--------|


  H..       E   q  H    Q    H..       E   E E Q  E E Q
|-------------|------------|-------------|----------------|
|-------------|------------|-------------|----------7-----|
|-------------|------------|-------------|--------7---7\--|
|-------------|-7----------|-------------|-5s7-5----------|
|-0---------7-|----0----0--|-----------5-|----------------|
|-------------|------------|-3-----------|----------------|


   Q.   E E  E  Q     +H.      S S E   Q.   E E E Q    +W
|------------------|-----------------|---------------|--------|
|-/9------9s12-11--|-(11)------7h9p7-|---------------|--------|
|-------9----------|-----------------|-9----9-9---9--|-(9)----|
|------------------|-----------------|----------9----|--------|
|------------------|-----------------|---------------|--------|
|------------------|-----------------|---------------|--------|


  Q.   E e E Q    +E  E E E H        Q.    E E  E  Q     +E   E  E E H
|---------------|----------------|--------------------|-------------------|
|---------------|----------------|-/11----11-9--------|-------------------|
|--------9------|-------7s9s7----|-------------12-11--|-(11)-11-11-9-8----|
|------9--------|-----7----------|--------------------|-------------------|
|-7----------5--|-(5)------------|--------------------|-------------------|
|---------------|----------------|--------------------|-------------------|


                                             |-3--|
  Q.   E e E Q    +E  E E E H        Q.    E S  S S E  Q     +W
|---------------|----------------|------------------------|---------|
|---------------|----------------|-/11----11-9h11p9p7-11--|-(11)----|
|--------9------|-------7s9s7----|------------------------|---------|
|------9---x----|-----7----------|------------------------|---------|
|-7----------5--|-(5)------------|------------------------|---------|
|---------------|----------------|------------------------|---------|


                                             |-3--|
  Q.   E e E Q    +E  E E E H        Q.    E S  S S E  Q     +E   E  E E H
|---------------|----------------|------------------------|-------------------|
|---------------|----------------|-/11----11-9h11p9p7-----|-------------------|
|--------9------|-------7s9s7----|--------------------11--|-(11)-11-11-9-8----|
|------9---x----|-----7----------|------------------------|-------------------|
|-7----------5--|-(5)------------|------------------------|-------------------|
|---------------|----------------|------------------------|-------------------|


                                             |-3--|
  Q.   E e E Q    +E  E E E H        Q.    E S  S S E  Q     +W
|---------------|----------------|------------------------|---------|
|---------------|----------------|-/11----11-9h11p9p7-11--|-(11)----|
|--------9------|-------7s9s7----|------------------------|---------|
|------9---x----|-----7----------|------------------------|---------|
|-7----------5--|-(5)------------|------------------------|---------|
|---------------|----------------|------------------------|---------|


  Q.   E e E Q    +E  E E E Q.   E   Q.   E e E Q    +Q    Q    H
|---------------|------------------|---------------|------------------|
|---------------|------------------|---------------|------------------|
|--------9------|-------7s9s7------|--------5------|------<7>---------|
|------9---x----|-----7------------|------5--------|-----------<7>----|
|-7----------5--|-(5)------------2-|-3----------5--|-(5)--------------|
|---------------|------------------|---------------|------------------|


    Q.   E e E Q    +E  E E E Q.   E   Q.   E e E Q    +W      3x
||----------------|------------------|---------------|---------||
||o---------------|------------------|---------------|--------o||
||---------9------|-------7s9s7------|--------5------|---------||
||-------9---x----|-----7------------|------5--------|---------||
||o-7----------5--|-(5)------------2-|-3----------5--|-(5)----o||
||----------------|------------------|---------------|---------||


    Q.   E e E Q    +E  E E E H
||----------------|----------------|
||o---------------|----------------|
||---------9------|-------7s9s7----|
||-------9---x----|-----7----------|
||o-7----------5--|-(5)------------|
||----------------|----------------|


            |-3--|
    Q.    E S  S S E  Q     +E   E  E E H
|------------------------|-------------------|
|-/11----11-9h11p9p7-----|-------------------|
|--------------------11--|-(11)-11-11-9-8----|
|------------------------|-------------------|
|------------------------|-------------------|
|------------------------|-------------------|


  Q.   E e E Q    +E  E E E H
|---------------|----------------|
|---------------|----------------|
|--------9------|-------7s9s7----|
|------9---x----|-----7----------|
|-7----------5--|-(5)------------|
|---------------|----------------|


                          1.                    2.
            |-3--|
    Q.    E S  S S E  Q     +H..        +E        +W
|------------------------|--------------------||---------|
|-/11----11-9h11p9p7-11--|-(11)--------(11)\-o||-(11)----|
|------------------------|--------------------||---------|
|------------------------|--------------------||---------|
|------------------------|-------------------o||---------|
|------------------------|--------------------||---------|


  Q  Q  Q  Q    E E E E Q.   E   Q.   E e E Q    +W
|-------------|----------------|---------------|--------|
|-------------|----------------|---------------|--------|
|-------------|-----7s9s7------|--------5------|--------|
|-------------|---7------------|------5--------|--------|
|----7-----5--|-5------------2-|-3----------5--|-(5)----|
|-------------|----------------|---------------|--------|


  Q.   E e E Q    +E  E E E Q.   E   Q.   E e E Q    +W
|---------------|------------------|---------------|--------|
|---------------|------------------|---------------|--------|
|--------9------|-------7s9s7------|--------5------|--------|
|------9---x----|-----7------------|------5--------|--------|
|-7----------5--|-(5)------------2-|-3----------5--|-(5)----|
|---------------|------------------|---------------|--------|


  Q.   E e E Q    +E  E E E Q.   E   Q.   E e E Q    +Q    Q    H
|---------------|------------------|---------------|------------------|
|---------------|------------------|---------------|------------------|
|--------9------|-------7s9s7------|--------5------|------<7>---------|
|------9---x----|-----7------------|------5--------|-----------<7>----|
|-7----------5--|-(5)------------2-|-3----------5--|-(5)--------------|
|---------------|------------------|---------------|------------------|


  Q.   E e E Q    +E  E E E Q.   E   Q.   E e E Q    +W
|---------------|------------------|---------------|--------|
|---------------|------------------|---------------|--------|
|--------9------|-------7s9s7------|--------5------|--------|
|------9---x----|-----7------------|------5--------|--------|
|-7----------5--|-(5)------------2-|-3----------5--|-(5)----|
|---------------|------------------|---------------|--------|


   H    H      +W           +W           +H     E E E E
|------------|------------|------------|-----------------|
|------------|------------|------------|-----------------|
|------------|------------|------------|-----------------|
|-/5---------|------------|------------|------------1-0--|
|------------|------------|------------|--------1h3------|
|-------3----|-(3)--------|-(3)--------|-(3)-------------|


  H    H      +W           +W           +W
|-----------|------------|------------|--------|
|-----------|------------|------------|--------|
|-----------|------------|------------|--------|
|-5---------|------------|------------|--------|
|-----------|------------|------------|--------|
|------3----|-(3)--------|-(3)--------|-(3)----|


  H    H      +W           +W           +W
|-----------|------------|------------|--------|
|-----------|------------|------------|--------|
|-----------|------------|------------|--------|
|------5----|-(5)--------|-(5)--------|-(5)----|
|-----------|------------|------------|--------|
|-3---------|------------|------------|--------|


  H    H      +W           +W           +W
|-----------|------------|------------|--------|
|-----------|------------|------------|--------|
|-----------|------------|------------|--------|
|------5----|-(5)--------|-(5)--------|-(5)----|
|-----------|------------|------------|--------|
|-3---------|------------|------------|--------|


  W          +W           W          +W
|----------|------------|----------|--------|
|----------|------------|----------|--------|
|----------|------------|----------|--------|
|-1--------|-(1)--------|----------|--------|
|----------|------------|-3--------|-(3)----|
|----------|------------|----------|--------|


  W          +W           W          +W
|----------|------------|----------|--------|
|----------|------------|----------|--------|
|----------|------------|----------|--------|
|----------|------------|----------|--------|
|----------|------------|----------|--------|
|-3--------|-(3)--------|-3--------|-(3)----|


   --*Verse*--
    W          +W           W          +W
||-----------|------------|----------|--------|
||o----------|------------|----------|--------|
||-----------|------------|----------|--------|
||-----------|------------|----------|--------|
||o----------|------------|----------|--------|
||--3--------|-(3)--------|-3--------|-(3)----|


  W          +W           W          +W
|----------|------------|----------|--------|
|----------|------------|----------|--------|
|----------|------------|----------|--------|
|-1--------|-(1)--------|----------|--------|
|----------|------------|-3--------|-(3)----|
|----------|------------|----------|--------|


  W          +W           W          +W
|----------|------------|----------|---------||
|----------|------------|----------|--------o||
|----------|------------|----------|---------||
|----------|------------|----------|---------||
|----------|------------|----------|--------o||
|-3--------|-(3)--------|-3--------|-(3)-----||


   --*Guitar Solo*--
    W          +W           W          +W
||-----------|------------|----------|---------||
||o----------|------------|----------|--------o||
||-----------|------------|----------|---------||
||-----------|------------|----------|---------||
||o----------|------------|----------|--------o||
||--3--------|-(3)--------|-3--------|-(3)-----||


  W          +H     Q  Q    W          +H     Q  Q
|----------|--------------|----------|--------------|
|----------|--------------|----------|--------------|
|----------|--------------|----------|--------------|
|-1--------|-(1)----1--0--|----------|--------------|
|----------|--------------|-3--------|-(3)----1--0--|
|----------|--------------|----------|--------------|


  W          +Q   E e E e E E   W          +W
|----------|------------------|----------|--------|
|----------|------------------|----------|--------|
|----------|------------------|----------|--------|
|----------|------------------|----------|--------|
|----------|------------------|----------|--------|
|-3--------|-(3)--0-1---0---1-|-3--------|-(3)----|


 --*2nd Verse*--
  W          +W           W          +W
|----------|------------|----------|--------|
|----------|------------|----------|--------|
|----------|------------|----------|--------|
|----------|------------|----------|--------|
|----------|------------|----------|--------|
|-3--------|-(3)--------|-3--------|-(3)----|


  W          +W           W          +W
|----------|------------|----------|--------|
|----------|------------|----------|--------|
|----------|------------|----------|--------|
|-1--------|-(1)--------|----------|--------|
|----------|------------|-3--------|-(3)----|
|----------|------------|----------|--------|


  W          +W           W          +W
|----------|------------|----------|--------|
|----------|------------|----------|--------|
|----------|------------|----------|--------|
|----------|------------|----------|--------|
|----------|------------|----------|--------|
|-3--------|-(3)--------|-3--------|-(3)----|


  W          +W           W          +H..       E
|----------|------------|----------|--------------|
|----------|------------|----------|--------------|
|----------|------------|----------|--------------|
|-1--------|-(1)--------|----------|--------------|
|----------|------------|-3--------|-(3)----------|
|----------|------------|----------|------------x-|


 --*Bridge*--
  H    H      +H..       E   W          +W
|-----------|--------------|----------|--------|
|-----------|--------------|----------|--------|
|-----------|--------------|----------|--------|
|------5----|-(5)----------|----------|--------|
|-----------|--------------|----------|--------|
|-3---------|------------3-|-3--------|-(3)----|


  H    H      +H..       E   W          +H..       E
|-----------|--------------|----------|--------------|
|-----------|--------------|----------|--------------|
|-----------|--------------|----------|--------------|
|------5----|-(5)----------|----------|--------------|
|-----------|--------------|----------|--------------|
|-3---------|------------3-|-3--------|-(3)--------3-|


  H    H      +H..       E   q  H.        H..       E
|-----------|--------------|------------|-------------|
|-----------|--------------|------------|-------------|
|-----------|--------------|------------|-------------|
|------5----|-(5)----------|------------|-------------|
|-----------|--------------|------------|-------------|
|-3---------|------------3-|-3--3-------|-3---------3-|


  H    H      +H..       E   W          +H..       E
|-----------|--------------|----------|--------------|
|-----------|--------------|----------|--------------|
|-----------|--------------|----------|--------------|
|------5----|-(5)----------|----------|--------------|
|-----------|--------------|----------|------------x-|
|-3---------|------------3-|-3--------|-(3)----------|


    H.       E  E    E   E  E  E E  E E  E    E  E  Q   +H        +W      3x
||----------------|------------------------|-------------------|----------||
||o---------19-19-|-19s=17-17-17---16---14s|=16----16--(16)----|-(16)----o||
||----------------|------------------------|-------------------|----------||
||----------19-19-|-19s=17-17-17---17---15s|=17----17--(17)----|-(17)-----||
||o-0-------------|-(0)--------------------|-(0)---------------|--(0)----o||
||----------------|------------------------|-------------------|----------||
    W               +W                       +W                   +W


  H.       E  E    E   E  E  E E  E E  E
|---------------|------------------------|
|---------19-19-|-19s=17-17-17---16---14s|
|---------------|------------------------|
|---------19-19-|-19s=17-17-17---17---15s|
|-0-------------|-(0)--------------------|
|---------------|------------------------|
  W               +W


   E  E  Q   +H        +E  Q.     H
|-------------------|---------------------------|
|-16----16--(16)----|-(16)----------------------|
|-------------------|-----------0-2-0-2-0---0---|
|-17----17--(17)----|-(17)-0--2-----------2-----|
|-(0)---------------|--(0)----------------------|
|-------------------|---------------------------|
  +W                   +E  E  E E E S S S E E
                                    |-3-|


    H.       E  E    E   E  E  E E  E E  E    E  E  Q   +H        +W      3x
||----------------|------------------------|-------------------|----------||
||o---------19-19-|-19s=17-17-17---16---14s|=16----16--(16)----|-(16)----o||
||----------------|------------------------|-------------------|----------||
||----------19-19-|-19s=17-17-17---17---15s|=17----17--(17)----|-(17)-----||
||o-0-------------|-(0)--------------------|-(0)---------------|--(0)----o||
||----------------|------------------------|-------------------|----------||
    W               +W                       +W                   +W


  H.       E  E    E   E  E  E E  E E  E
|---------------|------------------------|
|---------19-19-|-19s=17-17-17---16---14s|
|---------------|------------------------|
|---------19-19-|-19s=17-17-17---17---15s|
|-0-------------|-(0)--------------------|
|---------------|------------------------|
  W               +W


   E  E  Q   +H        +E  Q.     H
|-------------------|-------------------|
|-16----16--(16)----|-(16)--------------|
|-------------------|-----------0-2--0--|
|-17----17--(17)----|-(17)-0--2---------|
|-(0)---------------|--(0)--------------|
|-------------------|-------------------|
  +W                   +E  E  E E Q  Q


    H.      E E    E  E E E E E E E    E  E Q  +H       +W     10x
||--------------|-------------------|-----------------|---------||
||o---------7-7-|--7s=5-5-5---4---2s|==4----4--(4)----|-(4)----o||
||--------------|-------------------|-----------------|---------||
||----------7-7-|--7s=5-5-5---5---3s|==5----5--(5)----|-(5)-----||
||o-0-----------|-(0)---------------|-(0)-------------|-(0)----o||
||--------------|-------------------|-----------------|---------||
    W             +W                  +W                +W


   Distorted Part
    Q=160
    E E E E E E E E   E E E E E E E E   E E E E E E E E   E E E E E E E E
||------------------|-----------------|-----------------|------------------|
||o-----------------|-----------------|-----------------|------------------|
||------------------|-----------------|-----------------|------------------|
||------------------|-----------------|-----------------|------------------|
||o-0---0---0---0---|-0---0---0---0---|-0---0-----------|------------------|
||------------------|-----------------|---------3---3---|-3---3---3---3----|


  E E E E E E E E   E E E E E E E E   E E E E E E E E   E E E E E E E E  4x
|-----------------|-----------------|-----------------|------------------||
|-----------------|-----------------|-----------------|-----------------o||
|-----------------|-----------------|-----------------|------------------||
|-----------------|-----------------|-----------------|------------------||
|-0---0---0---0---|-0---0---0---0---|-0---0-----------|-----------------o||
|-----------------|-----------------|---------1---1---|-1---1---1---1----||


  E E E E E E E E   E E E E E E E E   E E E E Q  E E   E E Q  Q  Q
|-----------------|-----------------|----------------|--------------|
|-----------------|-----------------|----------------|--------------|
|-----------------|-----------------|----------------|--------------|
|-----------------|-----------------|----------------|--------------|
|-0---0---0-------|-----------------|----------------|--------------|
|-------------3---|-3---3---3---3---|-0-0-0------0-0-|-0---------4--|


    E E E E E E E E   E E E E E E E E   E E E E E E E E   E E E E E E Q
||------------------|-----------------|-----------------|-----------------|
||o-----------------|-----------------|-----------------|-----------------|
||------------------|-----------------|-----------------|-----------------|
||------------------|-----------------|-----------------|-----------------|
||o-----------------|-----------------|-----------------|-----------------|
||--5---5---5---1---|-1---1---1---1---|-3---3---3---3---|-3---3---3---4---|


                                     1.,2.,3.
  E E E E E E E E   E E E E E E E E   H.      Q    +Q   Q  +Q   Q
|-----------------|-----------------|------------|------------------||
|-----------------|-----------------|------------|-----------------o||
|-----------------|-----------------|------------|------------------||
|-----------------|-----------------|------------|------------------||
|-----------------|-----------------|---------2--|-(2)--3--(3)-----o||
|-5---5---5---1---|-1---1---1---1---|------------|------------------||


  4.                          Q=120
  H.      Q    +Q   Q  +H        W          +W           W
|------------|----------------||----------|------------|------|
|------------|----------------||----------|------------|------|
|------------|------2--(2)----||-0--------|-(0)--------|------|
|------------|----------------||----------|------------|------|
|---------0--|-(0)------------||----------|------------|------|
|------------|----------------||----------|------------|------|


  Q.   E +H        Q.   E  H       Q.    E    Q     Q     Q  H.
|-5----7-(7)----|---------11----|-11h===12p==11----11---|----------|
|---------------|----------9----|-----------------------|----------|
|---------------|-10------------|-----------------------|----------|
|-5----7-(7)----|---------------|-10---(10)-(10)--(10)--|-8--8-----|
|---------------|--8----7--7----|-----------------------|----------|
|---------------|---------------|-----------------------|----------|


   
    Q.   E +H        Q.   E H       Q.    E    E    E    Q     W     3x
||--5----7-(7)----|--------------|-11h===12p==11h==14p==11---|-------||
||o---------------|---------9----|---------------------------|------o||
||----------------|-10-----------|---------------------------|-------||
||--5----7-(7)----|--------------|-10---(10)-(10)-(10)-(10)--|-8-----||
||o---------------|--8----7-7----|---------------------------|------o||
||----------------|--------------|---------------------------|-------||


    Q.   Q.   Q    Q.   E H      W          W     4x
||---------------|-------------|----------|-------||
||o--------------|-------------|----------|------o||
||---------------|-------------|-5--------|-------||
||--5----7----8--|-------------|----------|-8-----||
||o--------------|-8----7-7----|----------|------o||
||---------------|-------------|----------|-------||


 --*Outro*--
  Q=135
  Q.   q  E Q    +W           Q.   Q.   Q    +W
|--------------|------------|--------------|--------*|
|--------------|------------|--------------|--------*|
|--------------|------------|--------------|--------*|
|--------------|------------|-5------------|--------*|
|-0----0----0--|-(0)--------|------0----5--|-(5)----*|
|--------------|------------|--------------|--------*|


Duration Legend
---------------
W - whole; H - half; Q - quarter; E - 8th; S - 16th; T - 32nd; X - 64th; a - acciaccatura
+ - note tied to previous; . - note dotted; .. - note double dotted
Uncapitalized letters represent notes that are staccato (1/2 duration)
Irregular groupings are notated above the duration line
Duration letters will always appear directly above the note/fret number it represents the
duration for.  Duration letters with no fret number below them represent rests.  Multi-
bar rests are notated in the form Wxn, where n is the number of bars to rest for.  Low
melody durations appear below the staff

Tablature Legend
----------------
 h   - hammer-on
 p   - pull-off
 b   - bend
 pb  - pre-bend
 r   - bend release (if no number after the r, then release immediately)
 /\  - slide into or out of (from/to "nowhere")
 s   - legato slide
 S   - shift slide
  - natural harmonic
[n]  - artificial harmonic
n(n) - tapped harmonic
 ~   - vibrato
 tr  - trill
 T   - tap
 TP  - trem. picking
 PM  - palm muting
\n/  - tremolo bar dip; n = amount to dip
 \n  - tremolo bar down
 n/  - tremolo bar up
/n\  - tremolo bar inverted dip
 =   - hold bend; also acts as connecting device for hammers/pulls
 <>  - volume swell (louder/softer)
 x   - on rhythm slash represents muted slash
 o   - on rhythm slash represents single note slash

Misc Legend
-----------
 |  - bar
||  - double bar
||o - repeat start
o|| - repeat end
*|  - double bar (ending)
 :  - bar (freetime)
 $  - Segno
 &  - Coda
Tempo markers -  = BPM(8/16=s8/s16), where s8 = swing 8ths, s16 = swing 16ths


***************************************************************************************
* Generated using Power Tab Editor by Brad Larsen - http://powertab.guitarnetwork.org *
***************************************************************************************

            
            
Suggest correction
Creating personal tab
Creating personal tab
You can edit any tab online and save it as your Personal.

You can edit, replace or remove any tab part or add personal notes – all changes will be seen only by you.

Personal tabs can be accessed anytime from any device, even offline.
Learn more »
comments
print report bad tab
2 comments total.
0 reply
rudemech 10 Nov 09, 2012 02:10 AM

Excellent work. Just bought myself a six string bass, this is the first song I'm learning on it - shame it's not a fretless though ;)

0 reply
roz-bint 10 Jul 30, 2015 04:00 AM

||----------------|------------------------|-------------------|----------||
||o---------19-19-|-19s=17-17-17---16---14s|=16----16--(16)----|-(16)----o||
||----------------|------------------------|-------------------|----------||
||----------17-17-|-17s=15-15-15---14---12s|=14----14--(14)----|-(14)-----||
||o-0-------------|-(0)--------------------|-(0)---------------|--(0)----o||
||----------------|------------------------|-------------------|----------||
W +W +W +W

guest
You may want to rate the tab now too:
select rating
Wanna post a correction for this tab? Suggest correction