Oops, an error
Loading. Please wait.

White Cluster bass

version 1
version 1

Whole song

Interactive

by Opeth
661 views 3 this week
1 commentread comment
1 2 3 4 5
1 last vote to show rating
add to favorites
×
Save as Personal and add changes to this tab that will be seen only by you. Learn more ›
×
You can save this tab as Personal to edit and correct it or add notes. All changes will be seen only by you. Learn more »
launch autoscroll
font size
0
reset
guitar tuner
edit
Autoscroll
slow
fast
+/-
esc
set tempo
stop
Author
                          WHITE CLUSTER 
                       As recorded by Opeth
                  (From the 1999 Album STILL LIFE)




.  - palm mute           /  - slide up to
\  - slide down to       ~  - vibrato
h  - hammer on           b  - Bend
p  - pull off            Suffixes for bend
t  - tap                 f  - full bend    h - half bend
ph - pinched harmonic    q  - quarter bend t - tap bend
*  - see comment         ^  - Hold bend    r release bend
x  - Stuccatto           ~  - vibrato bend
,  - slight palm mute    () - ghost note, sustained note
"  - tremolo note        <> - Trill


Gtr I (E A D G) - 'Martin Mendez, Clean Bass'



|----------------------------|
|----------------------------|
|-------------/7---7-x-6-x-3-|
|-2-2-0h33333----6-----------|


|-------------------------------------------------------------------|
|------------------------7--7-----7--6------------------------------|
|--0-0-222-3-33-0-0-23-76-65-----7-7---7----------------------------|
|----------------------------6-4---------0-0-4443-00-111-000--------|


|---------------------------------------------------|
|---------------------------------------------------|
|----6-------------5-----------2--------------------|
|---------------------------------------------------|

|--------------------------------------|
|--------------------------------------|
|--------------------------------------|
|-0h1-1-1--0h3-3-3--0h2-2-2--1-x-1-x-1-|A

|----------------------------------|
|----------------------------------|
|----------------------------------|
|-0h2-2-2--0h3-3-3--1-11111-0-0000-|A2

|---------------------------------|
|---------------------------------|
|-2--2-2-4-4-12-12-12-12-12-12-12-|B
|---------------------------------|

|-------------------------------------------------------------------|
|--------------------------------------------11-11111111------------|
|-2-2-2-4-4-12-12-12-12-12-12-12-14-14141414------------12-12121212-|
|-------------------------------------------------------------------|B2

|----------------------------------------------------|
|----------------------------------------------------|
|----------------------------------------------------|
|-2-2222-1-1111-5-5555-4-4444-6-66-5-55-3-5-55555555-|C

|----------------------------------------------------|D  |---|
|----------------------------------------------------|   |---|
|---/7-6h7-------------------------------------------|   |---|
|-0--------0h4-3-x-x-1h3-3-33-6-66-5-55-3-5-55555555-|   |-0-|

|--------------|
|--------------|E
|--------------|
|-55-3--62--61-|

|---------------------------|
|---------------------------|
|---------------------------|E2
|-55-3--62--61-1-1-11-1-1-1-|

|-------4-----------|
|-----3-------------|F
|---2------2--------|
|-1----------33--33-|

|-------------------------------|
|-------------------------------|
|-------------------------------|
|-0-00-0-0-0h1-1-0-0-/6-5-3h5-5-|G

|--------------------|
|---/6-7-4h62h41h2p0-|
|--------------------|H
|-4------------------|

|--------------------|
|---6----------------|I
|-------2--1---------|
|-4---3-------1----0-|   Basically repeat back to A
                         Then Play The Whole Damn Thing Over again
                         Fades out repeating B-B2

END.


Taken from http://www.MetalTabs.com

            
            
Suggest correction
Creating personal tab
Creating personal tab
You can edit any tab online and save it as your Personal.

You can edit, replace or remove any tab part or add personal notes – all changes will be seen only by you.

Personal tabs can be accessed anytime from any device, even offline.
Learn more »
Give kudos to tab author, rate the tab!
1 2 3 4 5
comments
print report bad tab
1 comment total.
0 reply
SirToasty 10 Jun 23, 2013 02:45 PM

Virtually no semblance of rhythms. Whole lots of wrong notes. Missing licks.

guest
You may want to rate the tab now too:
select rating
Wanna post a correction for this tab? Suggest correction