Oops, an error
Loading. Please wait.

Windowpane bass

version 2
version 2

Whole song

Interactive

by Opeth
17,137 views 18 this week
5 commentsread comments
1 2 3 4 5
x 13
add to favorites
×
Save as Personal and add changes to this tab that will be seen only by you. Learn more ›
×
You can save this tab as Personal to edit and correct it or add notes. All changes will be seen only by you. Learn more »
launch autoscroll
font size
0
reset
guitar tuner
backing track
0:00
0:00
edit
Autoscroll
slow
fast
+/-
esc
set tempo
stop
Difficulty
intermediate
Artist: Opeth
Album: Damnation
Track: Windowpane
Tabbed by: acreech

Standard EADG tuning
h = hammer on
p = pull off


  Intro(0:09)                                             [6x]
G|------2-----|-----------------------------------------2-----|
D|----2---2h4-|-----2h4---2-------4p2-----2h4---2-----2---2h4-|
A|--4---------|-------------------------------------4---------|
E|------------|-2-----------2--2------2-----------2-----------|


[0:36]			                   [6x] [1:12]                                     [8x]
G|---------------------------4h6p4-------------|-----------------------------------------2-----|
D|---------------------------------------------|-----2h4---2-------4p2-----2h4---2-----2---2h4-|
A|--4---4---4--4-4--2-----4--------4--4-4--2---|-------------------------------------4---------|
E|---------------------------------------------|-2-----------2--2------2-----------2-----------|
  "Blank face..."                               Guitar solo


[1:47]			                   [6x] 
G|---------------------------4h6p4-------------|
D|---------------------------------------------|
A|--4---4---4--4-4--2-----4--------4--4-4--2---|
E|---------------------------------------------|
  "Might be waiting..."


  [2:24]		 [2x] [2:36]      [2x] [2:42]
G|---------------------------|----------------|---------------------------|
D|---------------------------|--------1h3-----|---------------------------|
A|--0--0---2-----0--0-2h3----|--1---1---------|--0--0---2-----0--0-2h3----|
E|---------------------------|-------------2--|---------------------------|



  [2:49]		 [2x] [3:00]      [2x] [3:07]
G|---------------------------|----------------|---------------------------|
D|---------------------------|--------1h3-----|---------------------------|
A|--0--0---2-----0--0-2h3----|--1---1---------|--0--0---2-----0--0-2h3----|
E|---------------------------|-------------2--|---------------------------|
  "Inside plays a lullaby..."


  [3:12]		 [2x] [3:25]      [2x] [3:31]
G|---------------------------|----------------|---------------------------|
D|---------------------------|--------1h3-----|---------------------------|
A|--0--0---2-----0--0-2h3----|--1---1---------|--0--0---2-----0--0-2h3----|
E|---------------------------|-------------2--|---------------------------|



  [3:49]                                [8x] [4:38]	                         	          [4x]
G|--------------------------------------0---|---------------------------------------------------------|
D|--------------2---1-------------0--2------|--------0-----------0-----2---4---0---(2---4)--0---------|
A|------3---4---------3--2----3-------------|--------------------------------------(2---4)------------|
E|--2---------------------------------------|--2-----------2------------------------------------------|
                                             Guitar solo

  [5:50]	[5:59]                                     [8x]
G|-------------|-----------------------------------------2-----|
D|-------------|-----2h4---2-------4p2-----2h4---2-----2---2h4-|
A|-------------|-------------------------------------4---------|
E|--2----------|-2-----------2--2------2-----------2-----------|


  [6:34]			           [9x] [7:29]
G|---------------------------4h6p4-------------|---------------------------4h6p4---------|
D|---------------------------------------------|-----------------------------------------|
A|--4---4---4--4-4--2-----4--------4--4-4--2---|--4---4---4--4-4--2-----4--------4-4-----|
E|---------------------------------------------|-----------------------------------------|
  "Haunting loneliness..."

            
            
Suggest correction
Creating personal tab
Creating personal tab
You can edit any tab online and save it as your Personal.

You can edit, replace or remove any tab part or add personal notes – all changes will be seen only by you.

Personal tabs can be accessed anytime from any device, even offline.
Learn more »
comments
print report bad tab
5 comments total. Showing first comments.
0 reply
SeVereD1314 10 Mar 12, 2009 12:53 PM

Perfect...

0 reply
dnadel 120 Sep 04, 2015 06:43 AM

I find the fingering very difficult with standard tuning, so instead I tune the E string up to F# and play the opening riff like this:

G--------------------------------------------------------------------
D-----------------------------------7--------------------------------
A------7-9-7-----9-7---7-9-7------7---7--9---------------------------
F#--0--------0-0-----0-------0--7------------------------------------

then there are just a couple other F#'s in the interlude where you play the first string open (instead of on the 2nd fret)

0 reply
Braven_0 10 Sep 22, 2016 02:53 PM

I think the verse is wrong [0:36] and instead of 4h6p4 on G string it should be like this:

G------6-----------------------
D-----6-6(x)-------------------
A--4--------x-4--x-4----2------
E------------------------------

It's kinda hard to tab out, but the G# with (x) next to it [6(x) on D string] sounds good when you play it "percussive-ly", almost like a dead note but with making the G# out of it still. The bass in this song needs a lot of feel, so listen to it carefully when you want to play it like Martín Méndez =)

Also the verse has some variation to it, but it's hard to make it out, I have a shitty speaker for songs (basically my practice bass amp =D). But the tab is solid, not 100% but it's absolutely workable.

guest
Wanna post a correction for this tab? Suggest correction