Oops, an error
Loading. Please wait.

Windowpane tab

version 2
version 2

Whole song

Interactive

by Opeth
57,670 views 99 this week
3 commentsread comments
1 2 3 4 5
x 14
add to favorites
×
Save as Personal and add changes to this tab that will be seen only by you. Learn more ›
×
You can save this tab as Personal to edit and correct it or add notes. All changes will be seen only by you. Learn more »
launch autoscroll
font size
0
reset
how to read this tab
guitar tuner
backing track
0:00
0:00
edit
Autoscroll
slow
fast
+/-
esc
set tempo
stop
Author
Band: Opeth
Song: Windowpane
Album: Damnation

This tab is for the lead guitar (Mikael Akerfeldt).

This song uses a capo on the second fret so all notation
is relative to the capo.  For instance, the second fret in
this tab is actually the fourth fret on the guitar.  I think
it\'s a little easy to read this way, especially with open notes.

Capo 2.

[Intro]

e|-------------------------------------|
B|-------------------------------------|
G|-----0-------0-----0-----------------|
D|-----2-------2-----2-----------5p0-2-|
A|---2---2---2-----2---2---0h2/5-------|
E|-0-------0-----0-------0-------------|(x8)

[Verse]

e|---------------0---------------|
B|---------0---------------------|
G|-----6-----6-----6---6-----6---|
D|---4---4-----4-----4-----4---4-|
A|-2---------------------2-------|
E|-------------------------------|(x12)

[Solo 1]

e|-/7v--7-7-8-7-5-7-5h7-5----------------------------------------------|
B|------------------------8-7--7-8-7-8p7-------------------------------|
G|---------------------------------------9-7------------------------/6-|
D|-------------------------------------------/7----7-------------------|
A|----------------------------------------------10---10p9-7--5h7\\-----|
E|---------------------------------------------------------------------|
                              * * *

e|-----------------------------------------------------------------------|
B|-------5---7-7b8-- 7b8r7 (x7) -5-7-5------5----------------------------|
G|--5-4----4---------------------------/5-4---42-4h5p4-------------------|
D|--------------------------------------------------------7\\--7p5-7/9---|
A|-----------------------------------------------------------------------|
E|-----------------------------------------------------------------------|
                                                        *

e|--------------------------------------------|
B|--------------------------------------------|
G|-----7-9------------------------------------|
D|-7h9-----97--5h7-4--4h5p4---4---------------|
A|---------------------------7---5h7-7-0-1-2--|
E|--------------------------------------------|

[Verse] (x12)

[Interlude A] [1,2]             [3]

e|-5-3----5-3-----|-6-4----6-4----|-5-3--------------------------------|
B|-----3~-----3~--|-----4~-----4~-|-----3~-3h4p3---3-----------------8-|
G|----------------|---------------|--------------5---3-5-2-0--0-7-10---|
D|----------------|---------------|------------------------------------|
A|----------------|---------------|------------------------------------|
E|----------------|---------------|------------------------------------|

                [4]

e|----------6-8-8/10-|
B|-6-8-8/10----------|
G|-------------------|
D|-------------------|
A|-------------------|
E|-------------------|


[Interlude B]                [1,2,4,5]                   [3]

e|-----3-----3---3------3-----3---3---|-----4-------4---4---|
B|-----3-----3---3------3-----3---3---|-----4-------4---4---|
G|---3-----3---3---3--3---------3---3-|---4-----------4---4-|
D|------------------------------------|---------------------|
A|------------------------------------|---------------------|
E|-3-----5-----------3----5h6---------|-4-----6h7-0---------|

[Interlude A]

[Bridge]     
                                            
e|---------------------------------------------------------|
B|---------------------------------------------------------|
G|-------0-----0-----0-------0-----0-----0-----0-----0-----|
D|-----5-----5-----5-------5-----5-----5-----5-----5-------|
A|---------------5-----4-------------------------------5-8-|
E|-0-6-----7-------------6-----5-----5-----6-----7---------|(x8)

[Solo 2]                                    (x2)

e|----------------------------------------------||--------------------|
B|----------------------------------------------||--------/8-7-7------|
G|----------------------------------------------||----7-9---------9---|
D|-/7-5-4-5----/7-5-/9-7-5~-7-/9-5~-/7-5-5p4-2~-||-/9---------------9-|
A|----------7~----------------------------------||--------------------|
E|----------------------------------------------||--------------------|

e|---------7-----------------------------------------------------------|
B|-7b8r7-----10-7h8p7h8p7--7h8p7---------------------------------------|
G|-------9-----------------------9--7-9p7------------------------------|
D|----------------------------------------/7----------------------9----|
A|-------------------------------------------10-9h10p9h10--7-9-10---10-|
E|---------------------------------------------------------------------|

e|----------12b13------------------------------7h8----7-------------5-|
B|-----------------10b11r10----10-10h12-10h12------10---8h10----5h8---|
G|--------------------------12-------------------------------9--------|
D|--------------------------------------------------------------------|
A|-7h9h10-------------------------------------------------------------|
E|--------------------------------------------------------------------|

e|-8p7p5-----5h7-5-5-7-7h8-7b8r7-5-----7-----------------------|
B|-------5-8-----------------------8-7---7-5-7b8r7-5-3-3h5-----|
G|---------------------------------------------------------4~--|
D|-------------------------------------------------------------|
A|-------------------------------------------------------------|
E|-------------------------------------------------------------|

[Intro] (x10)

[Verse] (x19)

[Outro]

e|---------------0~---|
B|---------0----------|
G|-----6-----6--------|
D|---4---4-----4------|
A|-2------------------|
E|--------------------|



************************************

| p  Pull-off
| h  Hammer-on
| /  Slide up
| \  Slide down
| r  Release
| b  Bend
| ~  Vibrato

************************************

            
            
Suggest correction
Creating personal tab
Creating personal tab
You can edit any tab online and save it as your Personal.

You can edit, replace or remove any tab part or add personal notes – all changes will be seen only by you.

Personal tabs can be accessed anytime from any device, even offline.
Learn more »
comments
print report bad tab
3 comments total.
+9 reply
glee 10 Dec 22, 2009 11:48 PM

The first part is F#m-add9, not F#m. Removes all the mystiqe.

Try this:

|--------
|--------
|-----0--
|-----4--
|---2----
|-0------

-1 reply
James TH 191 Jul 18, 2010 08:23 AM

the second solo is in the wrong key

0 reply
Charamara 315 Oct 23, 2015 02:01 AM

Great tab man!

I was mucking around with the first solo, and i thought this way might sound better for the first part (notes relative to the capo on the 2nd fret of course):

|-----------------------------------------------------------------------------------------------|
|--10b12------12-12-13-12-10h12-10/12---10-8-7~----7-8-7~-brp5--5-------------------------------|
|--------------------------------------------------x-x-x----------7-4-2-2brp0----------------6--|
|--------------------------------------------------x-x-x-----------------------2----------------|
|------------------------------------------------------------------------------------5h7~-------|
|-----------------------------------------------------------------------------------------------|

guest
You may want to rate the tab now too:
select rating
Wanna post a correction for this tab? Suggest correction