Oops, an error
Loading. Please wait.

Gods Volk Wordt Uitgeleid Bass Tab

4 views 1 this week
no commentswrite comment
1 2 3 4 5
3 more votes to show rating
add to favorites
launch autoscroll
font size
0
reset
guitar tuner
Autoscroll
slow
fast
+/-
esc
set tempo
stop
Help us to improve Ultimate-Guitar.com Take our survey!
×
Author
Difficulty
intermediate
Part 1:
G|-----------------|-------------4-4-|-----------------|-------------------|
D|-2---2---2---2---|-5-5-------------|-2---2---2---2---|-5-4-2---2~~--2-0-2|
A|---2---2---2---2-|-----3-3-5-5-----|---2---2---2---2-|-------5-----------|
E|-----------------|-----------------|-----------------|-------------------|

Part 2:
G|-----------------|-----------------|-----------------|-------4-2-------|
D|-5-5-5-5---------|---------5---5---|-5---5-----------|-----------5-4-2-|
A|---------5---5---|-5---5-----5---5-|---5---5-5---5---|-----------------|
E|-----------5---5-|---5---5---------|-----------5---5-|-7~~~------------|

Part 1:
G|-----------------|-------------4-4-|-----------------|-------------------|
D|-2---2---2---2---|-5-5-------------|-2---2---2---2---|-5-4-2---2~~--2-0-2|
A|---2---2---2---2-|-----3-3-5-5-----|---2---2---2---2-|-------5-----------|
E|-----------------|-----------------|-----------------|-------------------|

Part 2:
G|-----------------|-----------------|-----------------|-------4-2-------|
D|-5-5-5-5---------|---------5---5---|-5---5-----------|-----------5-4-2-|
A|---------5---5---|-5---5-----5---5-|---5---5-5---5---|-----------------|
E|-----------5---5-|---5---5---------|-----------5---5-|-7~~~------------|

Part 2:
G|-----------------|-----------------|-----------------|-------4-2-------|
D|-5-5-5-5---------|---------5---5---|-5---5-----------|-----------5-4-2-|
A|---------5---5---|-5---5-----5---5-|---5---5-5---5---|-----------------|
E|-----------5---5-|---5---5---------|-----------5---5-|-7~~~------------|


***********************************
~ = Let ring
***********************************
Suggest correction
Give kudos to tab author, rate the tab!
1 2 3 4 5
comments
print report bad tab
guest
You may want to rate the tab now too:
select rating
Wanna post a correction for this tab? Suggest correction