Oops, an error
Loading. Please wait.

Yakap Sa Dilim tab

version 1
version 1

Whole song

Interactive

40,536 views 111 this week
10 commentsread comments
1 2 3 4 5
x 12
add to favorites
×
Save as Personal and add changes to this tab that will be seen only by you. Learn more ›
×
You can save this tab as Personal to edit and correct it or add notes. All changes will be seen only by you. Learn more »
launch autoscroll
font size
0
reset
how to read this tab
guitar tuner
edit
Autoscroll
slow
fast
+/-
esc
set tempo
stop
Author
cnxa sa istorbo...
to tama na to....

[Intro]
[Verse 1]

sandal mo sana...   (timingan nio)
C7-F-Dm7-Gm 2x

mga problema...
C7-Am-Dm7

c#           c
bago tayo'y magkayakap sa dilim

verse 2:(do verse1 chords)

[Refrain]

 c#           c
bago tayo'y magkayakap sa dilim

Em7-A
eto na....

Em7-A
eto na tayo...

Dm7-G
oh kay sarap...

c#           c
habang tayo'y magkayakap sa dilim

adlib:
    

E-------------------------------------------------------|
B--------------------------------5-6-5---5-6-8-6-5------|
G-------------5---------------5-7------7------------55--|
D-----3-5-5/7--7-5-5h7p5-5-3------------------------77--|
A---5---------------------------------------------------|
E-------------------------------------------------------|

E--------------------------------------------------/10--|
B---6-5-----------------------------5-6-8-55-5-6-8------|
G------7-7p5-7---------------7-5------------------------|
D---------------7-5-3---7-5-3-----7---------------------|
A---------------------5---------------------------------|
E-------------------------------------------------------|

[Refrain]

c#           c
habang tayo'y magkayakap sa dilim

Em7-A
eto na....

Em7-A
eto na tayo...

Dm7-G
oh kay sarap....

c#            c            c#
habang tayo'y magkayakap sa dilim

verse3:(do verse1 chords)--one step higher--
 
[Outro]
d-c#


by: amielito esguerra
from: IV-San Juan

4 comments n suggestions 
mail me hir: kissmo_mamot@yahoo.com



************************************

| h  Hammer-on
| p  Pull-off
| /  Slide up

************************************

            
            
Suggest correction
Creating personal tab
Creating personal tab
You can edit any tab online and save it as your Personal.

You can edit, replace or remove any tab part or add personal notes – all changes will be seen only by you.

Personal tabs can be accessed anytime from any device, even offline.
Learn more »
comments
print report bad tab
10 comments total. Showing first comments.
0 reply
jeff44 506 Sep 12, 2006 03:22 AM

L A P A..!!!!

0 reply
kytewafu 10 Oct 24, 2006 03:24 AM

may mali sa lead bro, kapain ko lang muna tapos lagay ko dito :D

0 reply
kytewafu 10 Oct 24, 2006 03:40 AM

E----------------------------------------------------|
B--------------------------------5-6-5---8-6-5-------|
G-------------5---------------5-7------7---------55--|
D-----3-5-5/7--7-5-5h7p5-5-3---------------------77--|
A---5------------------------------------------------|
E----------------------------------------------------|

E--------------------------------------------------8---8/10-|
B---6-5-----------------------------5-6-6/8-8/10-10-10------|
G------7-5h7p5-5---------------5-7--------------------------|
D----------------7-5-3---3-5-7------------------------------|
A----------------------5------------------------------------|
E-----------------------------------------------------------|

guest
You may want to rate the tab now too:
select rating
Wanna post a correction for this tab? Suggest correction