Oops, an error
Loading. Please wait.

Sometimes I Wish I Didnt Love You bass

34 views 3 this week
no commentswrite comment
1 2 3 4 5
3 more votes to show rating
add to favorites
×
Save as Personal and add changes to this tab that will be seen only by you. Learn more ›
×
You can save this tab as Personal to edit and correct it or add notes. All changes will be seen only by you. Learn more »
launch autoscroll
font size
0
reset
guitar tuner
edit
Autoscroll
slow
fast
+/-
esc
set tempo
stop
Author
Difficulty
Tabbed by: 6METAL6BASSIST6
E-mail: petergriffinav@gmail.com

Tuning: EADG

G|------------------------------------------------------------------------------------------------|
D|5-----5-----5-----5-----5-----5-----5-----5---------5-5---------5-5---------5-5---------5-5-----|
A|------------------------------------------------------------------------------------------------|
E|------------------------------------------------------------------------------------------------|

G|------------------------------------------------------------------------------------------------|
D|------------------------------------3-----3-----------------------------------------------------|
A|3-----3-----3-----3-----3-----3-----------------1-----1-----1-----1-----1-----1-----2-----2-----|
E|------------------------------------------------------------------------------------------------|

G|------------------------------------------------------------------------------------------------|
D|------------------------------------3-----3-----1-----1-----1-----1-----1-----1-----0-----0-----|
A|3-----3-----3-----3-----3-----3-----------------------------------------------------------------|
E|------------------------------------------------------------------------------------------------|

G|------------------------------------------------------------------------------------------------|
D|------------------------------------------------------------------------------------------------|
A|4---------------------4-----------------------4-----------------------4-----------------------4-|
E|------------------------------------------------------------------------------------------------|

G|------------------------------------------------------------------------------------------------|
D|------------------------------------------------------------------------------------------------|
A|----------------------4-----------------------------4-4---------4-4---------4-4---------4-4-----|
E|------------------------------------------------------------------------------------------------|

0:34

G|------------------------------------------------------------------------------------------------|
D|4-----4-----4-----4-----6-----6-----6-----6-----8-----8-----8-----8-----------------------------|
A|------------------------------------------------------------------------6-----6-----6-----6-----|
E|------------------------------------------------------------------------------------------------|

G|------------------------------------------------------------------------------------------------|
D|6-----6-----6-----6-----------------------------7-----7-----7-----7---------6---6---6---6---6---|
A|------------------------4-----4-----4-----4-----------------------------------------------------|
E|------------------------------------------------------------------------------------------------|

G|------------------------------------------------|
D|5-----5-----5-----5-----------------------------|
A|------------------------------------------------|
E|------------------------------------------------|

0:49

G|------------------------------------------------------------------------------------------------|
D|------------------------------------3-----3-----------------------------------------------------|
A|3-----3-----3-----3-----3-----3-----------------1-----1-----1-----1-----1-----1-----2-----2-----|
E|------------------------------------------------------------------------------------------------|

G|------------------------------------------------------------------------------------------------|
D|------------------------------------3-----3-----1-----1-----1-----1-----1-----1-----0-----0-----|
A|3-----3-----3-----3-----3-----3-----------------------------------------------------------------|
E|------------------------------------------------------------------------------------------------|

G|------------------------------------------------------------------------------------------------|
D|------------------------------------------------------------------------------------------------|
A|4---------------------4-----------------------4-----------------------4-----------------------4-|
E|------------------------------------------------------------------------------------------------|

G|------------------------------------------------------------------------------------------------|
D|------------------------------------------------------------------------------------------------|
A|----------------------4-----------------------------4-4---------4-4---------4-4---------4-4-----|
E|------------------------------------------------------------------------------------------------|

1:15

G|------------------------------------------------------------------------------------------------|
D|4-----4-----4-----4-----6-----6-----6-----6-----8-----8-----8-----8-----------------------------|
A|------------------------------------------------------------------------6-----6-----6-----6-----|
E|------------------------------------------------------------------------------------------------|

G|------------------------------------------------------------------------------------------------|
D|6-----6-----6-----6-----------------------------7-----7-----7-----7---------6---6---6---6---6---|
A|------------------------4-----4-----4-----4-----------------------------------------------------|
E|------------------------------------------------------------------------------------------------|

G|------------------------------------------------|
D|5-----5-----5-----5-----------------------------|
A|------------------------------------------------|
E|------------------------------------------------|

1:31

G|------------------------------------------------------------------------------------------------|
D|------------------------------------3-----3-----------------------------------------------------|
A|3-----3-----3-----3-----3-----3-----------------1-----1-----1-----1-----1-----1-----2-----2-----|
E|------------------------------------------------------------------------------------------------|

G|------------------------------------------------------------------------------------------------|
D|------------------------------------3-----3-----1-----1-----1-----1-----1-----1-----0-----0-----|
A|3-----3-----3-----3-----3-----3-----------------------------------------------------------------|
E|------------------------------------------------------------------------------------------------|

G|------------------------------------------------------------------------------------------------|
D|------------------------------------------------------------------------------------------------|
A|4---------------------4-----------------------4-----------------------4-----------------------4-|
E|------------------------------------------------------------------------------------------------|

G|------------------------------------------------------------------------------------------------|
D|------------------------------------------------------------------------------------------------|
A|----------------------4-----------------------------4-4---------4-4---------4-4---------4-4-----|
E|------------------------------------------------------------------------------------------------|

1:56

G|------------------------------------------------------------------------------------------------|
D|4-----4-----4-----4-----6-----6-----6-----6-----8-----8-----8-----8-----------------------------|
A|------------------------------------------------------------------------6-----6-----6-----6-----|
E|------------------------------------------------------------------------------------------------|

G|------------------------------------------------------------------------------------------------|
D|6-----6-----6-----6-----------------------------7-----7-----7-----7-----6-----6-----6-----6-----|
A|------------------------4-----4-----4-----4-----------------------------------------------------|
E|------------------------------------------------------------------------------------------------|

G|------------------------------------------------------------------------------------------------|
D|5-----5-----5-----5-----------------------------------------------------------------------------|
A|----------------------------------------------------4-4---------4-4---------4-4---------4-4-----|
E|------------------------------------------------------------------------------------------------|

G|------------------------------------------------------------------------------------------------|
D|------------------------------------------------------------------------------------------------|
A|----4-4---------4-4---------4-4---------4-4-----------------------------------------------------|
E|------------------------------------------------2-----------------------------------------------|

            
            
Suggest correction
Creating personal tab
Creating personal tab
You can edit any tab online and save it as your Personal.

You can edit, replace or remove any tab part or add personal notes – all changes will be seen only by you.

Personal tabs can be accessed anytime from any device, even offline.
Learn more »
Give kudos to tab author, rate the tab!
1 2 3 4 5
comments
print report bad tab
guest
You may want to rate the tab now too:
select rating
Wanna post a correction for this tab? Suggest correction