Oops, an error
Loading. Please wait.

Rage Of Angels bass

1,491 views 6 this week
no commentswrite comment
1 2 3 4 5
x 3
add to favorites
×
Save as Personal and add changes to this tab that will be seen only by you. Learn more ›
×
You can save this tab as Personal to edit and correct it or add notes. All changes will be seen only by you. Learn more »
launch autoscroll
font size
0
reset
guitar tuner
edit
Autoscroll
slow
fast
+/-
esc
set tempo
stop
-------------------------------------------------------------------------------
                             RAGE OF ANGELS - Orange Goblin
                              From the album Coup de Grace
-------------------------------------------------------------------------------

Tabbed by: Diabolusinmusic (Talkbass handle)
E-mail: Don't e-mail me, just update the tab and credit me where due 

The timing and structure are not 100% accurate, this is an outline, you need
to listen to where the parts go and proper timing.  I didn't include the little
fills in the verses, the song is in D minor, they are very easy to figure out
and good practice for your ear if you want to play it note for note.  

I do not think I am %100 on the second half of the middle riff, I noted where.
I have also not included the parts where they just hit open D, like the intro
and before and after the last riff, I think you can figure thpose parts out.  

Other than that song is only 3 parts and relatively straight forward.

Tuning: Drop D, tab is relative to that

Main riff
G|---------------------------------------------------------------------------|
D|---------------------------------------------------------------------------|
A|-5-----------------------3--0-3-4------------------------------------------|
E|----0--6\5--0--5\3--0--3---------------------------------------------------|

2nd riff, 1:30ish and 2:15ish------1st Repeat|------------2nd Repeat(not %100|
G|----------------------|--------------------|-------------------------------|
D|----------------------|------------------3-|-------------------------------|
A|----------------------|--------------------|-----------6-------------------|
E|-6--3-3--6--3-3--6--3-|--6--3-3--6--3-3----|--6--8--9-----9--8--6----------|

3rd riff - 2:59ish
G|---------------------------------------------------------------------------|
D|---------------------------------------------------------------------------|
A|-3h5-5-5---8-------------3h5-5-5--3h5-5-5----------------------------------|
E|--------------6---3-6-3----------------------------------------------------|


| \  slide down
| h  hammer-on
===============================================================================

            
            
Suggest correction
Creating personal tab
Creating personal tab
You can edit any tab online and save it as your Personal.

You can edit, replace or remove any tab part or add personal notes – all changes will be seen only by you.

Personal tabs can be accessed anytime from any device, even offline.
Learn more »
Give kudos to tab author, rate the tab!
1 2 3 4 5
comments
print report bad tab
guest
You may want to rate the tab now too:
select rating
Wanna post a correction for this tab? Suggest correction