Oops, an error
Loading. Please wait.

Falling And Laughing bass

version 1
version 1

Whole song

Interactive

1,035 views 6 this week
1 commentread comment
1 2 3 4 5
2 more votes to show rating
add to favorites
×
Save as Personal and add changes to this tab that will be seen only by you. Learn more ›
×
You can save this tab as Personal to edit and correct it or add notes. All changes will be seen only by you. Learn more »
launch autoscroll
font size
0
reset
guitar tuner
edit
Autoscroll
slow
fast
+/-
esc
set tempo
stop
Author
Difficulty
Artist/Band: Orange Juice
Song: "Falling and Laughing" (Album Version)
Album: You Can't Hide Your Love Forever (1982), Glasgow School (2006)

Bass

INTRO
G----------------------------------------------------------------||
D--------/10-----------------------------/10---------------------|| x 4
A-7---------------10------12------7---------------10------12-----||
E----------------------------------------------------------------||

VERSE RIFF I
G----------------------------------------------------------------||
D---------------/9----7------------------------/9----7h9p7-------|| x 2
A-5-----------------------9\------5--------------------------9---||
E----------------------------------------------------------------||

VERSE RIFF II
G-------------------------7-------------------------------7--9---|
D-------------7------7/9-----9----------------7------7/9---------|
A-7-----9-------------------------7-----9------------------------|
E----------------------------------------------------------------|
cont.
G-------------------------7-------------------------------7------|
D-------------7------7/9----------------------7------7/9-----9---|
A-7-----9-------------------------7-----9------------------------|
E----------------------------------------------------------------|

VERSE RIFF I variation 1
G----------------------------------------------------------------|
D---------------/9----7------------------------/9----7-----------|
A-5-----------------------9\------5----------------------9---7---|
E----------------------------------------------------------------|
cont.
G----------------------------------------------------------------|
D---------------/9---7-------------------------/9----7h9p7-------|
A-5-----------------------9\------5--------------------------9---|
E----------------------------------------------------------------|

VERSE RIFF II variation 1
G-------------------------7--9----------------------------7------|
D-------------7------7/9----------------------7------7/9-----9---|
A-7-----9-------------------------7-----9------------------------|
E----------------------------------------------------------------|
cont.
G-------------------------7-------------------------------7--9---|
D-------------7------7/9----------------------7------7/9---------|
A-7-----9-------------------------7-----9------------------------|
E----------------------------------------------------------------|

VERSE RIFF I variation 1

PRECHORUS RIFF
G----------------------------------------------------------------|
D-9---7-------7---9---7-------7---9---7-------7---9---7-------7--|
A---------9---------------9---------------9---------------9------|
E----------------------------------------------------------------|
cont.
G----------------------------------------------------------------|
D-7---5-------5---7---5-------5---7---5-------5---7---5-------5--|
A---------7---------------7---------------7---------------7------|
E----------------------------------------------------------------|
cont.
G----------------------------------------------------------------|
D-9---7-------7---9---7-------7---9---7-------7---9---7-------7--|
A---------9---------------9---------------9---------------9------|
E----------------------------------------------------------------|
cont.
G----------------------------------------------------------------|
D-7---5-------5---7---5-------5---7---5-------5---7---5-------5--|
A---------7---------------7---------------7---------------7------|
E----------------------------------------------------------------|

CHORUS RIFF
G-------------7------7-------------------------------------------|
D---------7h9-------------9\-------------------------------------|
A-7-------------------------------5-------------5---------5------|
E----------------------------------------------------------------|
cont.
G-----------------------------------------------7----------------|
D-7-------------7---------7------\6------------------6----4\-----|
A---------*-------*-------*-------*-------*-------*-------*------|
E----------------------------------------------------------------|
cont.
G----------------------------------------------------------------|
D-2~--------------------------------------12-----/12--12-----/12-|
A----------------------------------------------------------------|
E----------------------------------------------------------------|
cont.
G----------------------------------------------------------------|
D-12------12-----/12--12-----/12--12------12-----/12--12------12-|
A-----------------*-------*-------*-------*-------*-------*------|
E----------------------------------------------------------------|

VERSE RIFF II variation 2
G-------------------------7--9----------------------------7--7---|
D-------------7------7/9----------------------7------7/9---------|
A-7-----9-------------------------7-----9------------------------|
E----------------------------------------------------------------|
cont.
G-------------------------7-------------------------------7------|
D-------------7------7/9----------------------7------7/9-----9---|
A-7-----9-------------------------7-----9------------------------|
E----------------------------------------------------------------|

VERSE RIFF I
VERSE RIFF II variation 1
VERSE RIFF I
VERSE RIFF II variation 3
G-------------------------7-------------------------------7--9---|
D-------------7------7/9-----9----------------7------7/9---------|
A-7-----9-------------------------7-----9------------------------|
E----------------------------------------------------------------|
cont.
G-------------------------7-------------------------------7--9---|
D-------------7------7/9----------------------7------7/9---------|
A-7-----9-------------------------7-----9------------------------|
E----------------------------------------------------------------|

VERSE RIFF I variation 1
PRECHORUS RIFF
CHORUS RIFF

BRIDGE
G----------------------------------------------------------------|
D---------------------------------------------------12-----------|
A------10/12/14-----/14---12\-10-------10/12/14---------14-12-10-|
E-12------------------------------12-----------------------------|
cont.
G----------------------------------------------------------------||
D----------------------------------------------------------------|| x2
A------------9-----9h10---9------------------9-----9h10---9------||
E-10---10h12------------------12--10---10h12------------------12-||

PRECHORUS RIFF variation 1
G----------------------------------------------------------------|
D-9---7-------7---9---7-------7---9---7-------7---9---7-------7--|
A---------9---------------9---------------9---------------9------|
E----------------------------------------------------------------|
cont.
G----------------------------------------------------------------|
D-7---5-------5---7---5-------5---7---5-------5---7---5-------5--|
A---------7---------------7---------------7---------------7------|
E----------------------------------------------------------------|
cont.
G----------------------------------------------------------------|
D-9---7-------7---9---7-------7---9---7-------7---9---7-------7--|
A---------9---------------9---------------9---------------9------|
E----------------------------------------------------------------|
cont. (let open A ring)
G----------------------------------------------------------------|
D----------------------------------------------------------------|
A-0--------------------------------------------------------------|
E----------------------------------------------------------------|

OUTRO RIFF
G---------------------------------------------/7------7---5------||
D-------------------------------------------------------------7--|| x inf
A---------5-----------7--------5------4/--5----------------------||
E-3-------*---3---5-------5-------*-------*-------*-------*------||


That's it.  Please feel free to leave any comments, corrections, suggestions
 or requests.  Cheers!

-Bennyshambles78-
Suggest correction
Creating personal tab
Creating personal tab
You can edit any tab online and save it as your Personal.

You can edit, replace or remove any tab part or add personal notes – all changes will be seen only by you.

Personal tabs can be accessed anytime from any device, even offline.
Learn more »
Give kudos to tab author, rate the tab!
1 2 3 4 5
comments
print report bad tab
1 comment total.
0 reply
lwjob33 13 Oct 21, 2016 12:15 PM

The verse riff II sounds more accurate like so:

VERSE RIFF II
G-------------------------7-------------------------------7--9---|
D-------------7------7/9-----9----------------7------7/9---------|
A-7----10-------------------------7----10------------------------|
E----------------------------------------------------------------|
cont.
G-------------------------7-------------------------------7------|
D-------------7------7/9----------------------7------7/9-----9---|
A-7----10-------------------------7----10------------------------|
E----------------------------------------------------------------|

guest
You may want to rate the tab now too:
select rating
Wanna post a correction for this tab? Suggest correction