Oops, an error
Loading. Please wait.

Asterisk Tab

version 1
version 1

Intro

Whole song

Interactive

39,306 views 30 this week
10 commentsread comments
1 2 3 4 5
x 15
add to favorites
launch autoscroll
font size
0
reset
how to read this tab
guitar tuner
×
Best way to learn
"Asterisk"
Autoscroll
slow
fast
+/-
esc
set tempo
stop
Difficulty
intermediate
By Philip Crossland
philipcrossland@hotmail.com
ORANGE RANGE - ASTERISK

{Standard tuning}
[Intro Riff (Background) = 00.00-00.16]
  1 . 2 . 3 . 4 . |1 . 2 . 3 . 4 . |1 . 2 . 3 . 4 . |1 . 2 . 3 . 4 . |
e|---------1------|------1---------|-------3--------|----3-----------|
B|-----1-------1--|1--1-----1--1---|---1-------1--1-|-1-----1--1-----|
G|--2-------------|----------------|2---------------|----------------|
D|----------------|----------------|----------------|----------------|
A|----------------|----------------|----------------|----------------|
E|----------------|----------------|----------------|----------------|

  1 . 2 . 3 . 4 . |1 . 2 . 3 . 4 . |1 . 2 . 3 . 4 . |1 . 2 . 3 . 4 . |
e|---------1------|------1---------|-------3--------|----3-----------|
B|-----1-------1--|1--1-----1--1---|---1-------1--1-|-1--------------|
G|--2-------------|----------------|2---------------|----------------|
D|----------------|----------------|----------------|----------------|
A|----------------|----------------|----------------|----------------|
E|----------------|----------------|----------------|----------------|

[1st Electric Riff (Foreground) = 00.16-00.31]
  1 . 2 . 3 . 4 . |1 . 2 . 3 . 4 . |1 . 2 . 3 . 4 . |1 . 2 . 3 . 4 . |1 . 2 . 3 . 4 . |
e|----------------|----------------|----------------|----------------|----------------|
B|----------------|----------------|----------------|----------------|----------------|
G|----------------|----------------|----------------|----------------|----------------|
D|----------------|----------------|----------------|----------------|5-5--3-3--2-2-2-|
A|--2>3--3--3----3|--3-3--3-5-5-3-3|-7-7---2>3--3--3|----3-3-3--3----|----------------|
E|----------------|----------------|----------------|----------------|----------------|

  1 . 2 . 3 . 4 . |1 . 2 . 3 . 4 . |1 . 2 . 3 . 4 . |1 . 2 . 3 . 4 . |1 . 2 . 3 . 4 . |
e|----------------|----------------|----------------|----------------|----------------|
B|----------------|----------------|----------------|----------------|----------------|
G|----------------|----------------|----------------|----------------|----------------|
D|----------------|----------------|----------------|----------------|----------------|
A|--2>3--3--3----3|--3-3--3-5-5-3-3|-7-7---2>3--3--3|----3-3-3--3>3--|----------------|
E|----------------|----------------|----------------|----------------|----------------|

[2nd Electric Riff (Background) = 00.31-00.47]
  1 . 2 . 3 . 4 . |1 . 2 . 3 . 4 . |1 . 2 . 3 . 4 . |
e|-----------0----|----------0-----|---------0------|
B|-----1--3-----1-|----1--3-----1--|---1--3-----1---|
G|--2-------------|-2--------------|2--------------2|
D|----------------|----------------|----------------|
A|----------------|----------------|----------------|
E|----------------|----------------|----------------|

  1 . 2 . 3 . 4 . |1 . 2 . 3 . 4 . |1 . 2 . 3 . 4 . |
e|-----------0----|----------0-----|---------3--0---|
B|-----1--3-----1-|----1--3-----1--|---1--3--------1|
G|----------------|-2--------------|2---------------|
D|----------------|----------------|----------------|
A|----------------|----------------|----------------|
E|----------------|----------------|----------------|

  1 . 2 . 3 . 4 . |1 . 2 . 3 . 4 . |1 . 2 . 3 . 4 . |
e|-----------0----|----------0-----|---------0------|
B|-----1--3-----1-|----1--3-----1--|---1--3-----1---|
G|--2-------------|-2--------------|2--------------2|
D|----------------|----------------|----------------|
A|----------------|----------------|----------------|
E|----------------|----------------|----------------|

  1 . 2 . 3 . 4 . |1 . 2 . 3 . 4 . |1 . 2 . 3 . 4 . |
e|-----------0----|----------0-----|---------3--0---|
B|-----1--3-----1-|----1--3-----1--|---1--3--------1|
G|----------------|-2--------------|2---------------|
D|----------------|----------------|----------------|
A|----------------|----------------|----------------|
E|----------------|----------------|----------------|

[3rd Electric (Foreground) = 00.47-00.54]
  1 . 2 . 3 . 4 . |1 . 2 . 3 . 4 . |1 . 2 . 3 . 4 . |
e|----------------|----------------|----------------|
B|----------------|----------------|----------------|
G|----------------|----------------|----------------|
D|---3---3--3-3>2-|--2--2-2>0--0--0|-0--------------|
A|----------------|----------------|----------------|
E|----------------|----------------|-----3--3--3-3--|

************************************

| .  Staccato

************************************
Suggest correction
comments
print report bad tab
10 comments total. Showing first comments.
0 reply
[ Lunar Tear ] 10 Jul 29, 2006 10:11 AM

Awesome, I've been trying to figure this one out too since I'm a fan of Bleach too. I'm just a beginner though, so I can't figure it out. :(

Keep working at it! That intro sounds great.

0 reply
pnkr0cker 2,010 Feb 23, 2007 09:50 PM

bleach ****ing rocks my sox! How many manga volumes have been released in the US so far?

0 reply
gakkung85 20 May 29, 2007 09:54 PM

nice tab!!

guest
You may want to rate the tab now too:
select rating
Wanna post a correction for this tab? Suggest correction