Oops, an error
Loading. Please wait.

Asterisk Tab

version 2
version 2

Intro

Whole song

Interactive

9,222 views 3 this week
no commentswrite comment
1 2 3 4 5
accurate
x 4
add to favorites
launch autoscroll
font size
0
reset
how to read this tab
guitar tuner
Autoscroll
slow
fast
+/-
esc
set tempo
stop
Help us to improve Ultimate-Guitar.com Take our survey!
×
Author
this is a perfect tab of the electric riff in the intro enjoy
this is all 100%

e|----------------|----------------|----------------|----------------|
B|----------------|----------------|----------------|----------------|
G|--4>5--5--5----5|--5-5--5>7-7>5-5|>9-9---4>5--5--5|----5-5-5--2>---|
D|--x-x--x--x----x|--x-x--x-x-x-x-x|-x-x---x-x--x--x|----x-x-x--x----|
A|--2>3--3--3----3|--3-3--3>5-5>3-3|>7-7---2>3--3--3|----3-3-3--3>---|
E|----------------|----------------|----------------|----------------|
this next part should come right after the first part but there wasnt enought room
e|--------------------|
B|--------------------|
G|12--12>-10-10>-9-9--|
D|x---x---x--x---x-x--|
A|10--10>-8--8>--7-7--|
E|--------------------|


e|----------------|----------------|----------------|----------------|
B|----------------|----------------|----------------|----------------|
G|--4>5--5--5----5|--5-5--5>7-7>5-5|>9-9---4>5--5--5|----5-5-5--5>---|
D|--x-x--x--x----x|--x-x--x-x-x-x-x|-x-x---x-x--x--x|----x-x-x--x----|
A|--2>3--3--3----3|--3-3--3>5-5>3-3|>7-7---2>3--3--3|----3-3-3--3>---|
E|----------------|----------------|----------------|----------------|

there ya go please rate
Suggest correction
comments
print report bad tab
guest
You may want to rate the tab now too:
select rating
Please do not post tabs as comments. Select "correction" instead!