Oops, an error
Loading. Please wait.

Asterisk Tab

version 1
version 1

Whole song

Interactive

13,633 views 6 this week
no commentswrite comment
1 2 3 4 5
x 11
add to favorites
launch autoscroll
font size
0
reset
how to read this tab
guitar tuner
Autoscroll
slow
fast
+/-
esc
set tempo
stop
Help us to improve Ultimate-Guitar.com Take our survey!
×
Difficulty
intermediate
   

----------------------------------------------------------------------------
                             Asterisk - Orange Range
----------------------------------------------------------------------------
Tabbed by:Matias Faundez
Email:ratso_daninos@hotmail.com


Intro: 

E|-----------| 
B|-----------| 
G|-----0-5---| 
D|-2-3-------| 
A|-----------| 
E|-----------| 

Chorus: 

E|-------------------------| 
B|-------------------------| 
G|-------------------------| 
D|-3-----5-----7-----10----| 
A|-3-----5-----7-----10----| 
E|-1-----3-----5-----8-----| 

E|-------------------------| 
B|-------------------------| 
G|-------------------------| 
D|-3-----5-----7-----7-----| 
A|-3-----5-----7-----7-----| 
E|-1-----3-----5-----5-----| 

E|-------------------| 
B|-------------------| 
G|-------------------| 
D|-3-----5-----7-----| 
A|-3-----5-----7-----| 
E|-1-----3-----5-----| 

Solo: 

E|--------------------------------| 
B|--------------------------5-5---| 
G|-4-5-5-5--5-5-5-5-7-7-5-5-----4-| 
D|--------------------------------| 
A|--------------------------------| 
E|--------------------------------| 

E|--------------------------------| 
B|------------------8-8-6-6-5-5---| 
G|-4-5-5-5--5-5-5-5-------------4-| 
D|--------------------------------| 
A|--------------------------------| 
E|--------------------------------| 

E|--------------------------------| 
B|--------------------------5-5---| 
G|-4-5-5-5--5-5-5-5-7-7-5-5-----4-| 
D|--------------------------------| 
A|--------------------------------| 
E|--------------------------------| 

E|--------------------| 
B|--------------------| 
G|-4-5-5-5--5-5-5-5---| 
D|--------------------| 
A|--------------------| 
E|--------------------| 

Verse: 

(Nothing) 

Bridge: 

E|---------------------------------| 
B|---------------------------------| 
G|-10---9----7-----------------5---| 
D|-10---9----7-----5---------5-----| 
A|-8----7----5-----5-----7-8-------| 
E|-----------------3---------------| 

Chorus: 

E|-------------------------| 
B|-------------------------| 
G|-------------------------| 
D|-3-----5-----7-----10----| 
A|-3-----5-----7-----10----| 
E|-1-----3-----5-----8-----| 

E|-------------------------| 
B|-------------------------| 
G|-------------------------| 
D|-3-----5-----7-----7-----| 
A|-3-----5-----7-----7-----| 
E|-1-----3-----5-----5-----| 

E|-------------------| 
B|-------------------| 
G|-------------------| 
D|-3-----5-----7-----| 
A|-3-----5-----7-----| 
E|-1-----3-----5-----| 

Verse: 

(Nothing) 

Bridge: 

E|------------------------------------| 
B|--------------------------------5---| 
G|-10---9----7-----------------5------| 
D|-10---9----7-----5---------5--------| 
A|-8----7----5-----5-----7-8----------| 
E|-----------------3------------------| 

Chorus: 

E|-------------------------| 
B|-------------------------| 
G|-------------------------| 
D|-3-----5-----7-----10----| 
A|-3-----5-----7-----10----| 
E|-1-----3-----5-----8-----| 

E|-------------------------| 
B|-------------------------| 
G|-------------------------| 
D|-3-----5-----7-----7-----| 
A|-3-----5-----7-----7-----| 
E|-1-----3-----5-----5-----| 

E|-------------------------| 
B|-------------------------| 
G|-------------------------| 
D|-3-----5-----7-----7-----| 
A|-3-----5-----7-----7-----| 
E|-1-----3-----5-----5-----| 

Verse: 

E|----------------------------| 
B|----------------------------| 
G|----------------------------| 
D|-7--7---7---5-7-7----7--8---| 
A|-7--7---7-------7----7--8---|  x6 
E|-5--5---5-------5----5--6---| 

E|---------------| 
B|---------------| 
G|---------------| 
D|-8--8--8-8-8---| 
A|-8--8--8-8-8---| 
E|-6--6--6-6-6---| 

Verse: 

(Nothing) 

Chorus: 

E|-------------------------| 
B|-------------------------| 
G|-------------------------| 
D|-4-----6-----8-----3-----| 
A|-4-----6-----8-----3-----| 
E|-2-----4-----6-----1-----| 

E|-------------------------| 
B|-------------------------| 
G|-------------------------| 
D|-4-----6-----8-----3-----| 
A|-4-----6-----8-----3-----| 
E|-2-----4-----6-----1-----| 

E|-------------------------| 
B|-------------------------| 
G|-------------8-----8-----| 
D|-4-----6-----8-----8-----| 
A|-4-----6-----6-----6-----| 
E|-2-----4-----------------| 

E|-------------------------------| 
B|-------------------------------| 
G|-------------8-----6-----8-----| 
D|-4-----3-----8-----6-----8-----| 
A|-4-----3-----6-----4-----6-----| 
E|-2-----1-----------------------| 

E|-----------------------| 
B|-----------------------| 
G|-----------------------| 
D|-8---8---8---8---8-----| 
A|-8---8---8---8---8-----| 
E|-6---6---6---6---6-----| 
Suggest correction
comments
print report bad tab
guest
You may want to rate the tab now too:
select rating
Wanna post a correction for this tab? Suggest correction