Oops, an error
Loading. Please wait.

Michishirube Bass Tab

1,369 views 1 this week
no commentswrite comment
1 2 3 4 5
3 more votes to show rating
add to favorites
launch autoscroll
font size
0
reset
guitar tuner
Autoscroll
slow
fast
+/-
esc
set tempo
stop
Help us to improve Ultimate-Guitar.com Take our survey!
×
Difficulty
novice
Michishirube ~a road home~
Orange Range - MusiQ (2004)
J-Rock/Pop

Intro
G||-----------------------------------------------|
D||-----------------------------------------------|
A||-----------------------------------------------|
E||------0~------------------5~-----7~-----777777-|

Intro pt.2
G||--------------------------------------------------|
D||--------------------------------------------------|
A||--------------------------------------------------|
E||--00-00000-55-55555-99-99999-7-777777-0~----------|

Verse
G||--------------------------------------------------|
D||--------------------------------------------------|  x4
A||-------------44-44-44-44--------------------------|
E||-00-00-00-00--------------------------------------|

Bridge
G||------------------------------------------------------|
D||------------------------------------------------------|
A||------------------------------------------------------|
E||-55-5-55555-5-555-44-4-44444-4-444-22-2-2222222-2-222-|

G||--------------------------------------------------|
D||--------------------------------------------------|
A||--------------------------------------------------|
E||-7-7-7-7/[12]-[12][12][12][12][12]-9-77-----------|

Chorus
G||--------------------------------------------------|
D||--------------------------------------------------|  x2
A||-------------------44444444-33333333--------------|
E||-00000000-55555555--------------------------------|

Intro pt.2**
G||--------------------------------------------------|
D||--------------------------------------------------|  x2
A||--------------------------------------------------|
E||--00-00000-55-55555-99-99999-55-55555-------------|

*Instant transition* to Verse x4
Bridge

Chorus*
G||--------------------------------------------------|
D||--------------------------------------------------|
A||-------------------44444444-33333333--------------|
E||-00000000-55555555--------------------------------|

G||--------------------------------------------------|
D||--------------------------------------------------|
A||-------------------44444444-33333333--------------|
E||-00000000-55555555-------------------0~-----------|

Interlude
G||--------------------------------------------------|
D||--------------------------------------------------|  x2
A||-------------------44444444-33333333--------------|
E||-0/5~--05-05-0567777777776777777------------------|
Chorus x2
Intro Pt.2** x2

Please note that this is not 100% correct, and it's just the basic tune for it.  Feel 
to improve upon it and repost.

Lee
Suggest correction
Give kudos to tab author, rate the tab!
1 2 3 4 5
comments
print report bad tab
guest
You may want to rate the tab now too:
select rating
Wanna post a correction for this tab? Suggest correction