Oops, an error
Loading. Please wait.

Lush 3-1 Bass Tab

version 1
version 1

Whole song

  • Bass from Lush 2-1 with added note duration.

Interactive

13 views 1 this week
no commentswrite comment
1 2 3 4 5
3 more votes to show rating
add to favorites
launch autoscroll
font size
0
reset
guitar tuner
Autoscroll
slow
fast
+/-
esc
set tempo
stop
Help us to improve Ultimate-Guitar.com Take our survey!
×
Author
Difficulty
Tuning
novice
D A D G B E
About this tab version
Bass from Lush 2-1 with added note duration. Was this info helpful? Yes No
[Intro] [0:29]
G|---------------------------------|---------------------------------|
D|---------------------------------|---------------------------------|
A|---------------------------------|---------------------------------|
D|-4-----------4-------4-----4-----|-2-----------2-------2-----2-----|
   E   Q       E   E   E   S E   S   E   Q       E   E   E   S E   S

G|---------------------------------|---------------------------------|
D|---------------------------------|---------------------------------|
A|---------------------------------|---------------------------------|
D|-4-----------4-------4-----4-----|-2-----------2-2-----2-----2-----|
   E   Q       E   E   E   S E   S   E   Q       S E   S E   S E   S
G|---------------------------------|---------------------------------|
D|---------------------------------|---------------------------------|
A|---------------------------------|---------------------------------|
D|-0-----------0-------0-----0-----|-2-----------2-2-----2-----2-----|
   E   Q       E   E   E   S E   S   E   Q       S E   S E   S E   S
G|---------------------------------|---------------------------------|
D|---------------------------------|---------------------------------|
A|---------------------------------|---------------------------------|
D|-0-----------0-------0-----0-----|-2-----------2-2-----2-----2-----|
   E   Q       E   E   E   S E   S   E   Q       S E   S E   S E   S

[Chorus] [1:58]
G|---------------------------------|---------------------------------|
D|---------------------------------|---------------------------------|
A|---------------------------------|---------------------------------|
D|-4-----------4-------4-----4-----|-2-----------2-------2-----2-----|
   E   Q       E   E   E   S E   S   E   Q       E   E   E   S E   S

G|---------------------------------|---------------------------------|
D|---------------------------------|---------------------------------|
A|---------------------------------|---------------------------------|
D|-4-----------4-------4-----4-----|-2-----------2-2-----2-----2-----|
   E   Q       E   E   E   S E   S   E   Q       S E   S E   S E   S
G|---------------------------------|---------------------------------|
D|---------------------------------|---------------------------------|
A|---------------------------------|---------------------------------|
D|-0-----------0-------0-----0-----|-2-----------2-2-----2-----2-----|
   E   Q       E   E   E   S E   S   E   Q       S E   S E   S E   S
G|---------------------------------|---------------------------------|
D|---------------------------------|---------------------------------|
A|---------------------------------|---------------------------------|
D|-0-----------0-------0-----0-----|-2-----------2-2-----2-----2-----|
   E   Q       E   E   E   S E   S   E   Q       S E   S E   S E   S

[Drums fill in] [2:28]
G|---------------------------------|---------------------------------|
D|---------------------------------|---------------------------------|
A|---------------------------------|---------------------------------|
D|-4-----------4-------4-----4-----|-2-----------2-------2-----2-----|
   E   Q       E   E   E   S E   S   E   Q       E   E   E   S E   S

G|---------------------------------|---------------------------------|
D|---------------------------------|---------------------------------|
A|---------------------------------|---------------------------------|
D|-4-----------4-------4-----4-----|-2-----------2-2-----2-----2-----|
   E   Q       E   E   E   S E   S   E   Q       S E   S E   S E   S
G|---------------------------------|---------------------------------|
D|---------------------------------|---------------------------------|
A|---------------------------------|---------------------------------|
D|-0-----------0-------0-----0-----|-2-----------2-2-----2-----2-----|
   E   Q       E   E   E   S E   S   E   Q       S E   S E   S E   S
G|---------------------------------|---------------------------------|
D|---------------------------------|---------------------------------|
A|---------------------------------|---------------------------------|
D|-0-----------0-------0-----0-----|-2-----------2-2-----2-----2-----|
   E   Q       E   E   E   S E   S   E   Q       S E   S E   S E   S

[Drumfill][4:26]
G|---------------------------------|---------------------------------|
D|---------------------------------|---------------------------------|
A|---------------------------------|---------------------------------|
D|---------------------------------|---------------------------------|
   W                                 W

G|---------------------------------|---------------------------------|
D|---------------------------------|---------------------------------|
A|---------------------------------|---------------------------------|
D|---------------------------------|---------------------------------|
   W                                 W

[Outro][4:55]
G|---------------------------------|---------------------------------|
D|---------------------------------|---------------------------------|
A|---------------------------------|---------------------------------|
D|-4-----------4-------4-----4-----|-2-----------2-------2-----2-----|
   E   Q       E   E   E   S E   S   E   Q       E   E   E   S E   S

G|---------------------------------|---------------------------------|
D|---------------------------------|---------------------------------|
A|---------------------------------|---------------------------------|
D|-4-----------4-------4-----4-----|-2-----------2-2-----2-----2-----|
   E   Q       E   E   E   S E   S   E   Q       S E   S E   S E   S
G|---------------------------------|---------------------------------|
D|---------------------------------|---------------------------------|
A|---------------------------------|---------------------------------|
D|-0-----------0-------0-----0-----|-2-----------2-2-----2-----2-----|
   E   Q       E   E   E   S E   S   E   Q       S E   S E   S E   S
G|---------------------------------|---------------------------------|
D|---------------------------------|---------------------------------|
A|---------------------------------|---------------------------------|
D|-0-----------0-------0-----0-----|-2-----------2-2-----2-----2-----|
   E   Q       E   E   E   S E   S   E   Q       S E   S E   S E   S


W - whole; H - half; Q - quarter; E - 8th; S - 16th;
Suggest correction
Give kudos to tab author, rate the tab!
1 2 3 4 5
comments
print report bad tab
guest
You may want to rate the tab now too:
select rating
Wanna post a correction for this tab? Suggest correction