Oops, an error
Loading. Please wait.

Incontri bass

7 views 1 this week
no commentswrite comment
1 2 3 4 5
3 more votes to show rating
add to favorites
×
Save as Personal and add changes to this tab that will be seen only by you. Learn more ›
×
You can save this tab as Personal to edit and correct it or add notes. All changes will be seen only by you. Learn more »
launch autoscroll
font size
0
reset
guitar tuner
edit
Autoscroll
slow
fast
+/-
esc
set tempo
stop
Author
Difficulty
Tabbed by: 6METAL6BASSIST6
E-mail: petergriffinav@gmail.com

Tuning: EADG

G|----------------------------------------------------------------|
D|7---------------------------7---7---------------------------7---|
A|----------------------------------------------------------------|
E|------------5---5---------------------------5---5---------------|

0:05

G|----------------------------------------------------------------|
D|7---------------------------7---7---------------------------7---|
A|----------------------------------------------------------------|
E|------------5---5---------------------------5---5---------------|

G|----------------------------------------------------------------|
D|7---------------------------7---5---------------------------5---|
A|----------------------------------------------------------------|
E|------------5---5---------------------------3---3---------------|

G|----------------------------------------------------------------|
D|--------------------------------3------------3------------------|
A|3-----------3---3-----------3--------------------2----------2---|
E|----------------------------------------------------------------|

G|----------------------------------------------------------------|
D|2---------------------------------------------------------------|
A|--------------------------------7---------------------------7---|
E|----------------------------------------------------------------|

G|----------------------------------------------------------------|
D|----------------------------------------------------------------|
A|----------------------------------------------------------------|
E|5-------------------------------5---------------5---5---5---5---|

0:31

G|----------------------------------------------------------------|
D|----------/-12--12------------------------/-12--12--------------|
A|5---------------------------5---5---------------------------5---|
E|----------------------------------------------------------------|

G|----------------------------------------------------------------|
D|----------/-12--12------------------------/-10--10------\-------|
A|5---------------------------5---3---------------------------3---|
E|----------------------------------------------------------------|

G|----------------------------------------------------------------|
D|3-----------3---3-----------3--------------------2----------2-/-|
A|--------------------------------2------------2------------------|
E|----------------------------------------------------------------|

G|----------------------------------------------------------------|
D|7---------------------------7---7---------------------------7---|
A|----------------------------------------------------------------|
E|------------5---5---------------------------5---5---------------|

0:51

G|----------------------------------------------------------------|
D|------------------------------------------------------------7---|
A|5-----------5---4---------------2-----------2-------------------|
E|------------------------------------------------5---------------|

G|----------------------------------------------------------------|
D|5-----------5---4-----------4---2-----------2-/-7---------------|
A|----------------------------------------------------------------|
E|------------------------------------------------------------5---|

G|----------------------------------------------------------------|
D|--------------------------------------------------------------7-|
A|5-----------5---4---------4---4-2-----------2---------------7---|
E|------------------------------------------------5---------------|

G|----------------------------------------------------------------|
D|6-----------6---------------6---7-------------------------------|
A|----------------7-----------------------------7-------4-7-----4-|
E|--------------------------------------------------5-7-------5---|

1:10

G|----------------7---------------------------------------------/-|
D|--------------7---------------------------/-9---9-----------9---|
A|5---------------------------5-\-2-------------------------------|
E|----------------------------------------------------------------|

G|9---------------------------9---9---------------------------9---|
D|----------------------------------------------------------------|
A|------------7-7-7---------------------------7-7-7---7-----------|
E|----------------------------------------------------------------|

G|9-------------------------/-9---9-------------------------------|
D|----------------------------------------------------------------|
A|------------7-7-7---7-----------------------7-7-7-----------7---|
E|----------------------------------------------------------------|

1:25

G|----------------------------------------------------------------|
D|7---------------------------7---7---------------------------7---|
A|----------------------------------------------------------------|
E|------------5---5---------------------------5---5---------------|

G|----------------------------------------------------------------|
D|7---------------------------7---5---------------------------5---|
A|----------------------------------------------------------------|
E|------------5---5---------------------------3---3---------------|

G|----------------------------------------------------------------|
D|--------------------------------3------------3------------------|
A|3-----------3---3-----------3--------------------2----------2---|
E|----------------------------------------------------------------|

G|----------------------------------------------------------------|
D|2---------------------------------------------------------------|
A|--------------------------------7---------------------------7---|
E|----------------------------------------------------------------|

G|----------------------------------------------------------------|
D|----------------------------------------------------------------|
A|----------------7-------7-------4-----------4-------------------|
E|5-----------------------------------------------5-----------5---|

1:50

G|----------------------------------------------------------------|
D|----------/-12--12------------------------/-12--12--------------|
A|5---------------------------5---5---------------------------5---|
E|----------------------------------------------------------------|

G|----------------------------------------------------------------|
D|5-------------------------------------------5---5-----------5---|
A|----------------5-------5---------------------------------------|
E|--------------------------------3-------------------------------|

G|----------------------------------------------------------------|
D|----------/-10--10------------------------/-10--10----------10\-|
A|3---------------------------3---3-------------------------------|
E|----------------------------------------------------------------|

G|----------------------------------------------------------------|
D|4-----------4---4-----------4--------------/-9---9----------9---|
A|--------------------------------2-------------------------------|
E|----------------------------------------------------------------|

G|----------------------------------------------------------------|
D|----------/-14--14------\------------------/-14--14------\------|
A|7---------------------------7---7---------------------------7---|
E|----------------------------------------------------------------|

G|----------------------------------------------------------------|
D|7-----------7-----------------------------/-9---9---------------|
A|------------------------------------------------------------2-/-|
E|----------------5-----------5---7-------------------------------|

2:20

G|----------------------------------------------------------------|
D|----------------------------------------------------------------|
A|7-----------7---6---------------4-----------4---2-----------2---|
E|----------------------------------------------------------------|

G|----------------------------------------------------------------|
D|------------7---6---------------4-----------4-/-9---------------|
A|----------------------------------------------------------------|
E|5-----------------------------------------------------------7---|

G|----------------------------------------------------------------|
D|----------------------------------------------------------------|
A|7-----------7---6---------------4-----------4---2-----------2---|
E|----------------------------------------------------------------|

G|----------------------------------------------------------------|
D|------------7---4-------------------------/-9---9---------------|
A|--------------------------------2---------------------------2-/-|
E|5---------------------------------------------------------------|

2:39

G|----------------------------------------------------------------|
D|----------------------------------------------------------------|
A|7-----------7---7-------------------------------6-----------6---|
E|--------------------------------5-----------5-------------------|

G|----------------------------------------------------------------|
D|----------/-14--14------\---------------------------------------|
A|7---------------------------7-------------------6-----------6---|
E|--------------------------------5-----------5-------------------|

G|----9---------------------------|
D|--------9---6-------------------|
A|7---------------7---------------|
E|--------------------------------|

2:51

G|----------------------------------------------------------------|
D|7---------------------------7---7---------------------------7---|
A|----------------------------------------------------------------|
E|------------5---5---------------------------5---5---------------|

G|----------------------------------------------------------------|
D|7---------------------------7---5---------------------------5---|
A|----------------------------------------------------------------|
E|------------5---5---------------------------3---3---------------|

G|----------------------------------------------------------------|
D|--------------------------------3------------3------------------|
A|3-----------3---3-----------3--------------------2----------2---|
E|----------------------------------------------------------------|

G|----------------------------------------------------------------|
D|2---------------------------------------------------------------|
A|-------------------------------------------------7------7-\-----|
E|----------------------------------------------------------------|

G|--------------------------------|
D|--------------------------------|
A|--------------------------------|
E|5-------------------------------|

            
            
Suggest correction
Creating personal tab
Creating personal tab
You can edit any tab online and save it as your Personal.

You can edit, replace or remove any tab part or add personal notes – all changes will be seen only by you.

Personal tabs can be accessed anytime from any device, even offline.
Learn more »
Give kudos to tab author, rate the tab!
1 2 3 4 5
comments
print report bad tab
guest
You may want to rate the tab now too:
select rating
Wanna post a correction for this tab? Suggest correction