Oops, an error
Loading. Please wait.

Electricity Bass Tab

1,791 views 3 this week
no commentswrite comment
1 2 3 4 5
please rate
add to favorites
launch autoscroll
font size
0
reset
guitar tuner
Autoscroll
slow
fast
+/-
esc
set tempo
stop
Help us to improve Ultimate-Guitar.com Take our survey!
×
Author
                              Electricity
                   Orchestral Manoeuvres In The Dark
                            www.omd.uk.com


G-------------------------------------------|
D--5---------5---------5---------5--5--5--5-|
A-------------------------------------------|
E-------3---------3---------3---------------|

G-----------------------------------------------------------------|
D-7-7-7-7-7-7-7-7-7-7-7-7-7-------3-3-3-3-3-3-3-3-3-3-3-3-3-2-3-5-|
A---------------------------0-2-3---------------------------------|
E-----------------------------------------------------------------|

G-----------------------------------------------------------------|
D---------------------------------5-5-5-5-5-5-5-5-5-5-5-5-5-5-5-5-|
A-3-3-3-3-3-3-3-3-3-3-3-3-3-3-3-3---------------------------------|
E-----------------------------------------------------------------|

G-----------------------------------------------------------------|
D-7-7-7-7-7-7-7-7-7-7-7-7-7-------3-3-3-3-3-3-3-3-3-3-3-3-3-2-3-5-|
A---------------------------0-2-3---------------------------------|
E-----------------------------------------------------------------|

G-----------------------------------------------------------------|
D---------------------------------5-5-5-5-5-5-5-5-5-5-5-5-5-5-5-5-|
A-3-3-3-3-3-3-3-3-3-3-3-3-3-3-3-3---------------------------------|
E-----------------------------------------------------------------|

G-----------------------------------------------------------------|
D-7-7-7-7-7-7-7-7-7-7-7-7-7-5-5-5-3-3-3-3-3-3-3-3-3-3-3-3-3-3-3-2-|
A-----------------------------------------------------------------|
E-----------------------------------------------------------------|

G-----------------------------------------------------------------|
D---------------------------------5-5-5-5-5-5-5-5-5-5-5-5-5-5-5-5-|
A-3-3-3-3-3-3-3-3-3-3-3-3-3-3-3-3---------------------------------|
E-----------------------------------------------------------------|

G-----------------------------------------------------------------|
D-7-7-7-7-7-7-7-7-7-7-7-7-7-5-5-5-3-3-3-3-3-3-3-3-3-3-3-3-3-2-3-5-|
A-----------------------------------------------------------------|
E-----------------------------------------------------------------|

G-----------------------------------------------------------------|
D---------------------------------5-5-5-5-5-5-5-5-5-5-5-5-5-5-5-5-|
A-3-3-3-3-3-3-3-3-3-3-3-3-3-3-3-3---------------------------------|
E-----------------------------------------------------------------|

G-----------------------------------------------------------------|
D-7-7-7-7-7-7-7-7-7-7-7-7-7-------3-3-3-3-3-3-3-3-3-3-3-3-3-2-3-5-|
A---------------------------0-2-3---------------------------------|
E-----------------------------------------------------------------|

G-----------------------------------------------------------------|
D---------------------------------5-5-5-5-5-5-5-5-5-5-5-5-5-5-5-5-|
A-3-3-3-3-3-3-3-3-3-3-3-3-3-3-3-3---------------------------------|
E-----------------------------------------------------------------|

G-----------------------------------------------------------------|
D-7-7-7-7-5-5-5-5-2-0-------------7-7-7-7-5-5-5-5-2-0-------------|
A---------------------3-2-0-0-0-0---------------------3-2-0-0-0-0-|
E-----------------------------------------------------------------|

G-----------------------------------------------------------------|
D-5-5-5-5-3-3-3-3-0---------------5-5-5-5-3-3-3-3-0---------------|
A-------------------3-2-0---------------------------3-2-0---------|
E-------------------------3-3-3-3-------------------------3-3-3-3-|

G-----------------------------------------------------------------|
D-7-7-7-7-5-5-5-5-2-0-------------7-7-7-7-5-5-5-5-2-0-------------|
A---------------------3-2-0-0-0-0---------------------3-2-0-0-0-0-|
E-----------------------------------------------------------------|

G-----------------------------------------------------------------|
D-5-5-5-5-3-3-3-3-0---------------5-5-5-5-3-3-3-3-0---------------|
A-------------------3-2-0---------------------------3-2-0---------|
E-------------------------3-3-3-3-------------------------3-3-3-3-|

G-----------------------------------------------------------------|
D-7-7-7-7-7-7-7-7-7-7-7-7-7-------3-3-3-3-3-3-3-3-3-3-3-3-3-2-3-5-|
A---------------------------0-2-3---------------------------------|
E-----------------------------------------------------------------|

G-----------------------------------------------------------------|
D---------------------------------5-5-5-5-5-5-5-5-5-5-5-5-5-5-5-5-|
A-3-3-3-3-3-3-3-3-3-3-3-3-3-3-3-3---------------------------------|
E-----------------------------------------------------------------|

G-----------------------------------------------------------------|
D-7-7-7-7-7-7-7-7-7-7-7-7-7-------3-3-3-3-3-3-3-3-3-3-3-3-3-2-3-5-|
A---------------------------0-2-3---------------------------------|
E-----------------------------------------------------------------|

G-----------------------------------------------------------------|
D---------------------------------5-5-5-5-5-5-5-5-5-5-5-5-5-5-5-5-|
A-3-3-3-3-3-3-3-3-3-3-3-3-3-3-3-3---------------------------------|
E-----------------------------------------------------------------|

G-----------------------------------------------------------------|
D-7-7-7-7-7-7-7-7-7-7-7-7-7-5-5-5-3-3-3-3-3-3-3-3-3-3-3-3-3-3-3-2-|
A-----------------------------------------------------------------|
E-----------------------------------------------------------------|

G-----------------------------------------------------------------|
D---------------------------------5-5-5-5-5-5-5-5-5-5-5-5-5-5-5-5-|
A-3-3-3-3-3-3-3-3-3-3-3-3-3-3-3-3---------------------------------|
E-----------------------------------------------------------------|

G-----------------------------------------------------------------|
D-7-7-7-7-7-7-7-7-7-7-7-7-7-5-5-5-3-3-3-3-3-3-3-3-3-3-3-3-3-2-3-5-|
A-----------------------------------------------------------------|
E-----------------------------------------------------------------|

G-----------------------------------------------------------------|
D---------------------------------5-5-5-5-5-5-5-5-5-5-5-5-5-5-5-5-|
A-3-3-3-3-3-3-3-3-3-3-3-3-3-3-3-3---------------------------------|
E-----------------------------------------------------------------|

G-----------------------------------------------------------------|
D-7-7-7-7-7-7-7-7-7-7-7-7-7-------3-3-3-3-3-3-3-3-3-3-3-3-3-2-3-5-|
A---------------------------0-2-3---------------------------------|
E-----------------------------------------------------------------|

G-----------------------------------------------------------------|
D---------------------------------5-5-5-5-5-5-5-5-5-5-5-5-5-5-5-5-|
A-3-3-3-3-3-3-3-3-3-3-3-3-3-3-3-3---------------------------------|
E-----------------------------------------------------------------|

G-----------------------------------------------------------------|
D-7-7-7-7-5-5-5-5-2-0-------------7-7-7-7-5-5-5-5-2-0-------------|
A---------------------3-2-0-0-0-0---------------------3-2-0-0-0-0-|
E-----------------------------------------------------------------|

G-----------------------------------------------------------------|
D-5-5-5-5-3-3-3-3-0---------------5-5-5-5-3-3-3-3-0---------------|
A-------------------3-2-0---------------------------3-2-0---------|
E-------------------------3-3-3-3-------------------------3-3-3-3-|

G-----------------------------------------------------------------|
D-7-7-7-7-5-5-5-5-2-0-------------7-7-7-7-5-5-5-5-2-0-------------|
A---------------------3-2-0-0-0-0---------------------3-2-0-0-0-0-|
E-----------------------------------------------------------------|

G-----------------------------------------------------------------|
D-5-5-5-5-3-3-3-3-0---------------5-5-5-5-3-3-3-3-0---------------|
A-------------------3-2-0---------------------------3-2-0---------|
E-------------------------3-3-3-3-------------------------3-3-3-3-|

G-------------------------------------------------------------------|
D-7-7-7-7-7-7-7-7-7-7-7-7-7-7-7-5/7-7-7-7-7-7-7-7-7-7-7-7-7-7-7-5/7-|
A-------------------------------------------------------------------|
E-------------------------------------------------------------------|

Suggest correction
Give kudos to tab author, rate the tab!
1 2 3 4 5
comments
print report bad tab
guest
You may want to rate the tab now too:
select rating
Please do not post tabs as comments. Select "correction" instead!