Oops, an error
Loading. Please wait.

Rot Bass Tab

3,051 views 15 this week
no commentswrite comment
1 2 3 4 5
please rate
add to favorites
launch autoscroll
font size
0
reset
guitar tuner
Autoscroll
slow
fast
+/-
esc
set tempo
stop
Help us to improve Ultimate-Guitar.com Take our survey!
×
Author
G ----------------------------------------------------------|
D ------------------7--8--5--7--5--2p3------------3-2-------|
A -----------5-------------------------------3h5------------|
E ----------------------------------------------------------|

G -------------------------------------5----3--2--2p3p0**----|
D ------------------7--8--5--7--5----------------------------|
A -----------5-----------------------------------------------|
E -----------------------------------------------------------|

G -----------------------------------------------------------------|
D -----------------3------------------8-7-8-5-7-5---3--------------|
A -----------5----------3-------5---------------------------3------|
E -----------------------------------------------------------------|


It might be a little bit wrong, but I can't play it as fast as them yet so I'm not sure.
Suggest correction
Give kudos to tab author, rate the tab!
1 2 3 4 5
comments
print report bad tab
guest
You may want to rate the tab now too:
select rating
Please do not post tabs as comments. Select "correction" instead!