Oops, an error
Loading. Please wait.

La India Apache Tab

14 views 1 this week
no commentswrite comment
1 2 3 4 5
3 more votes to show rating
add to favorites
×
Save as Personal and add changes to this tab that will be seen only by you. Learn more ›
×
You can save this tab as Personal to edit and correct it or add notes. All changes will be seen only by you. Learn more »
save as personal
new!
launch autoscroll
font size
0
reset
how to read this tab
guitar tuner
Autoscroll
slow
fast
+/-
esc
set tempo
stop
Armoniza en DO#m

Esta melodia se toca con el ritmo de cumbia

1ra Parte
( Se repite 4 veces)  
        C#m                  A   B        C#m 
e-------9-------9-------9------5---7------9------
B--7/9----7/9-----7/9-----9--5---7----7/9--------
G-----------------------------------------------

2da Parte
( Se repite 3 veces, a la cuarta vez se toca la siguiente linea)
  C#m                   G#                      C#m  
e-9/12p9--9/12p9--7/9p7---16-14-16-14--12/14p12---9--
B-----------------------9----------------------------
G--------------------------------------------------
     C#m                   G#              C#m
e----9/12p9---9/12p9---7/9-----------8--8--9-9-9-9--
B---------------------------9-9-10-10---------------
G---------------------------------------------------
3ra Parte 
(Se repite 4 veces)
     C#m                        C            C#m
e-----------------------------------------------
B----9--7--------9------------7-8-7------9------
G---------9--8-------6-----8-9------9--8-----6--

4ta Parte 
(Se repite 4 veces, al terminar las cuatro
veces, se vuelve a tocar la 2da parte)
      C#m            A       B           C#m 
e------------------------------------------------
B------------------------------------------------
G-----6----6----6----2--2----4--4---------6------
D-4/6--4/6--4/6---6--2--2----4--4-----4/6--------
A------------------------------------------------
E------------------------------------------------

El final
(Se repite la primera y segunda
parte, y al terminarlas se toca la primera
parte 3 vecesy a la cuarta se toca esta parte)
     C#m                 A   B     C#m 
e-----9----9-----9---------5---7---7--7--7---
B-7/9--7/9---7/9---9-----5---7-----9--9--9---
G--------------------------------------------
Suggest correction
Give kudos to tab author, rate the tab!
1 2 3 4 5
comments
print report bad tab
guest
Wanna post a correction for this tab? Suggest correction