Oops, an error
Loading. Please wait.

Por Ella Chords

17 views 1 this week
no commentswrite comment
1 2 3 4 5
3 more votes to show rating
add to favorites
launch autoscroll
font size
0
reset
transpose
0
reset
display chords
guitar tuner
×
Best way to learn
"Por Ella"
Autoscroll
slow
fast
+/-
esc
set tempo
stop
Armoniza en LA menor
  Am                   Dm
e-12-10----12-10---12--13-12-10-13-12-10-13-
B-------12------12--------------------------
G-------------------------------------------
D-------------------------------------------
A-------------------------------------------
E-------------------------------------------
  Dm                     E                 Am
e-13-12-10-13-12-10-13---12-10----------10-12-
B------------------------------13-12-13-------
G---------------------------------------------
D---------------------------------------------
A---------------------------------------------
E---------------------------------------------

Am             Dm           G
Ella marco mi vida le puso fin
                          C
a mis iluciones con su partida
        Dm       
era mi reina, lo mejor de mejor
    Am          F
que tenia y se fue un hermoso
                    E
verano al morir el dia
Am             Dm           G
Ella me habia jurado serle fiel
                      C
A mi corazon toda la vida
     Dm                Am
Ella solo mentia, ella solo mentia
       F
Y hoy esta en tus brazos y de mi
           E
Ya ni se acuerda
      C              Am
Y yo solo respiro, camino, suspiro
      Dm
Por ella
       G
Hoy navego en la nada, perdido
                C
Sin rumbo y sin ella
                               Am
Y no puedo ligarla, la llevo tatuada
      Dm        F 
En el alma, su amor me llena de vida
                  E
Su ausencia me mata
Am     Dm       G 
Ella, ella? la llevo tatuada en el alma
              C
No puedo olvidarla
Suggest correction
Give kudos to tab author, rate the tab!
1 2 3 4 5
comments
print report bad tab
guest
You may want to rate the tab now too:
select rating
Wanna post a correction for this tab? Suggest correction