Oops, an error
Loading. Please wait.

Candyass Tab

by Orgy
648 views 3 this week
1 commentread comment
1 2 3 4 5
excellent!
x 2
add to favorites
launch autoscroll
font size
0
reset
how to read this tab
guitar tuner
Tab Pro tools
  • play this tab
  • loop segment
  • change instrument
  • show fretboard
  • metronome
Autoscroll
slow
fast
+/-
esc
set tempo
stop
Orgy-Candyass 
   Full Album 
   Tuning, g D A# F C G 
   Amir Derakh = Lead Guitar, Lead = L 
   Ryan Shuck = Rhythme Guitar Ryhthme = R 
   _________________________________________________________________ 
   Track 1-Social Enemies 

   Intro/Chorus 

   |-------------------| R 
   |-------------------| 
   |-------------------| 
   |-7--------7--------| 
   |-7-----6^-7-----5^-| 
   |-5--------5--------| 

   |------------------12-----------------------| L 
   |-14-12------14-12------14-12------14-12-10-| 
   |-------12--------------------12------------| 
   |-------------------------------------------| 
   |-------------------------------------------| 
   |-------------------------------------------| 

   Verse 

   |--------------| L 
   |--------------| 
   |--------------| 
   |-5----5---5-6-| 
   |--------------| 
   |--------------| 
   _________________________________________________________________ 
   Track 2-Stitches 

   Intro 

   |------------------| L 
   |------------------| 
   |------------------| 
   |------------------| 
   |------------------| 
   |-xxx-xx-xx-xx-xxx-| 

   Verse 
   Amir does fx w/ 
   |-----------| L 
   |-14-and-15-| 
   |-----------| 
   |-----------| 
   |-----------| 
   |-----------| 

   Chorus 

   |-----------------------------| R 
   |-----------------------------| 
   |--------4-4-44---------------| 
   |-2-2-22-4-4-44-5-5-55-4-4-44-| 
   |-2-2-22-2-2-22-5-5-55-4-4-44-| 
   |-0-0-00--------3-3-33-2-2-22-| 

   |--------------------------------------------------------| L 
   |---------------19---------------------------------------| 
   |-20-18-------------------------20-18---------18---16-15-| 
   |-------16---------16-15--------------16-13--------------| 
   |--------------------------------------------------------| 
   |--------------------------------------------------------| 

   Interlude 

   |----------------------------------| R 
   |----------------------------------| 
   |----------------------------------| 
   |-7-7-7-7-7-8-8-8--3-3-3-3-3-2-2-2-| 
   |-7-7-7-7-7-8-8-8--3-3-3-3-3-2-2-2-| 
   |-5-5-5-5-5-6-6-6--1-1-1-1-1-0-0-0-| 

   |----------------------------------| L 
   |----------------------------------| 
   |-7-7-7-7-7-8-8-8--3-3-3-3-3-2-2-2-| 
   |-7-7-7-7-7-8-8-8--3-3-3-3-3-2-2-2-| 
   |----------------------------------| 
   |----------------------------------| 

   _________________________________________________________________ 
   Track 3-Dissention 

   Intro/Chorus 

   |---------------------------------| R 
   |---------------------------------| 
   |---------------------------------| 
   |-5-5---5/4-4-4-7-7-2-2-4-4---3-3-| 
   |-5-5---5/4-4-4-7-7-202-4-4---3-3-| 
   |-3-3---3/2-2-2-5-5-000-2-2---1-1-| 

   |-10------11-10-----------11-8----| L 
   |---------------------------------| 
   |-----------------7-------------7-| 
   |---------------------------------| 
   |---------------------------------| 
   |---------------------------------| 

   Verse 

   |-10----8--15-16--10----8-| L 
   |----10--------------10---| 
   |-------------------------| 
   |-------------------------| 
   |-------------------------| 
   |-------------------------| 

   Interlude 

   |---|---|---| R 
   |---|---|---| 
   |---|---|---| 
   |-7-|-5-|-8-| 
   |-7-|-5-|-8-| 
   |-5-|-3-|-6-| 
   16x 8x 8x 

   |---|---|---|---| L R 
   |---|---|---|---| 
   |---|---|---|---| 
   |-7-|-8-|-5-|-9-| 
   |-7-|-8-|-5-|-9-| 
   |-5-|-6-|-3-|-7-| 
   12x 4x 12x 4x 

   _________________________________________________________________ 
   Track 4-Platinum 

   Chorus/verse (for rhythme,no lead in verse) 

   |----------------| R 
   |----------------| 
   |-7---9>>--------| 
   |-7---7>>--9---5-| 
   |-5--------9---5-| 
   |----------7---3-| 

   |----------------| L 
   |----------------| 
   |-----9>>--------| 
   |-7---7>>------3-| 
   |-5--------9---3-| 
   |-5--------7---3-| 

   Fill 

   |-------12-11-10-------------| L 
   |----------------12----------| 
   |-14-12-------------10h12-12-| 
   |----------------------------| 
   |----------------------------| 
   |----------------------------| 

   Interlude 

   |---------12^r12^----------| L (sorry, couldn't figure out 
   |--------------------------| rhythme) 
   |-10h12p10--------12-10-12-| 
   |--------------------------| 
   |--------------------------| 
   |--------------------------| 
   _________________________________________________________________ 
   Track 5-Fetisha 

   Verse 

   |-----------------12--------| L 
   |----------12-11-----9--/11-| 
   |---------------------------| 
   |---------------------------| 
   |---------------------------| 
   |---------------------------| 

   |---------------------------| R 
   |---------------------------| 
   |---------------------------| 
   |-10-10-10------------------| 
   |-10-10-10-------7----------| 
   |--8--8--8-8-7------5----7--| 

   Chorus 

   |---|----|---|---| R L 
   |---|----|---|---| 
   |---|----|---|---| 
   |-9-|-12-|-5-|-2-| 
   |-9-|-12-|-5-|-2-| 
   |-7-|-10-|-3-|-0-| 
   4x 4x 4x 4x 

   Fill 

   |-----------------------16---------| L 
   |----------------------------------| 
   |-13----14-13----14-13----------13-| 
   |----------------------------14----| 
   |----------------------------------| 
   |----------------------------------| 

   Bridge 

   |---------------------| L R 
   |---------------------| 
   |---------------------| 
   |-5-8-8-4-6-5-3-6-5-3-| 
   |-5-8-8-5-6-5-3-6-5-3-| 
   |-3-6-6-3-4-3-1-4-3-1-| 

   Pre-Interlude 

   |----------------------| L 
   |----------------------| 
   |----------------------| 
   |-11---7--11--10-----2-| 
   |-11---7--11--10---4-2-| 
   |----------------------| 

   |----------------------| R 
   |----------------------| 
   |----------------------| 
   |-11------11--10-------| 
   |-11------11--10---4---| 
   |----------------------| 

   Interlude 

   |----|---|----|----|---|---| L R 
   |----|---|----|----|---|---| 
   |----|---|----|----|---|---| 
   |-11-|-7-|-11-|-10-|-4-|-2-| 
   |-11-|-7-|-11-|-10-|-4-|-2-| 
   |--9-|-5-|--9-|--8-|-2-|-0-| 
   4x 4x 4x 4x 4x 4x 
   _________________________________________________________________ 
   Track 6-Fiend 

   Intro 

   |--------------------| L 
   |-12^---12^---12^----| 
   |-----------------12-| 
   |--------------------| 
   |--------------------| 
   |--------------------| 

   Bridge 

   |---------------|-----------------| R 
   |---------------|-----------------| 
   |---------------|-----------------| 
   |---------------|-----------------| 
   |---------------|-8-8-8-8-7-7-7-7-| 
   |-8-8\--8-8-7-7-|-----------------| 
   3x 

   |---------------|-----------------| L 
   |---------------|-----------------| 
   |---------------|-----------------| 
   |----10^--------|-----------------| 
   |---------------|---8---8---7---7-| 
   |---------------|-----------------| 
   3x 

   Verse, same as rhythme's bridge. 

   Chorus 

   |---------------------| R 
   |---------------------| 
   |---------------------| 
   |-7---7---10---5------| 
   |-5---7---10---5--4---| 
   |-----5----8---3--2---| 

   |----------------------| L 
   |---13--13--13---------| 
   |---------------14--14-| 
   |----------------------| 
   |----------------------| 
   |----------------------| 

   Interlude 

   |------------| L 
   |----8-----7-| 
   |-9-----8----| 
   |------------| 
   |------------| 
   |------------| 

   |------------| R 
   |----13---12-| 
   |------------| 
   |------------| 
   |-11----9----| 
   |--9----7----| 
   _________________________________________________________________ 
   Track 7-Blue Monday 

   Intro/Verse 

   |----------------------------------------------| L 
   |----------------------------------------------| 
   |-15-15-15-17-10-10-10-12-------12----12-------| 
   |-15-15-15-17-10-10-10-12-12-12----12-------12-| 
   |-13-13-13-15--8--8--8-10-10-------------10----| 
   |----------------------------------------------| 

   |------------------------------------- 
   |------------------------------------- 
   |------------------------------------- 
   |------------------------------------- 
   |------------------------------------- 
   |-5-55-5-5-2-22-2-2-4-44-4-4-4-44-4-4- 

   --------------------------------------| R 
   --------------------------------------| 
   --------------------------------------| 
   --------------------------------------| 
   --------------------------------------| 
   --7-77-7-7-2-22-2-2-4-44-4-4-4-44-4-4-| 

   Chorus 

   |--------------------------------- 
   |--------------------------------- 
   |--------------------------------- 
   |--------------------------------- 
   |-7-7-7-7-2-2-2-2-4-4-4-4-4-4-4-4- 
   |-7-7-7-7-2-2-2-2-4-4-4-4-4-4-4-4- 

   |---------------------------------| R 
   |---------------------------------| 
   |---------------------------------| 
   |---------------------------------| 
   |-9-9-9-9-2-2-2-2-4-4-4-4-4-4-4-4-| 
   |-9-9-9-9-2-2-2-2-4-4-4-4-4-4-4-4-| 

   |--------------------------------- 
   |--------------------------------- 
   |--------------------------------- 
   |-9-9-9-9-4-4-4-4-6-6-6-6-6-6-6-6- 
   |-9-9-9-9-4-4-4-4-6-6-6-6-6-6-6-6- 
   |-7-7-7-7-2-2-2-2-4-4-4-4-4-4-4-4- 

   |-------------------------------------| L 
   |-------------------------------------| 
   |-------------------------------------| 
   |-11-11-11-11-4-4-4-4-6-6-6-6-6-6-6-6-| 
   |-11-11-11-11-4-4-4-4-6-6-6-6-6-6-6-6-| 
   |--9--9--9--9-2-2-2-2-4-4-4-4-4-4-4-4-| 

   Fill 

   |--------------------------------| R 
   |--------------------------------| 
   |--------------------------------| 
   |-xxxx-x-xxx-x-xxx-x-xx-xxx-xx-x-| 
   |-xxxx-x-xxx-x-xxx-x-xx-xxx-xx-x-| 
   |-xxxx-x-xxx-x-xxx-x-xx-xxx-xx-x-| 

   Solo 1 

   |---------------------------------- 
   |---------------------------------- 
   |-12-12-12-12-12-12-12-12-12-10-12- 
   |---------------------------------- 
   |-10-10-10-10-10-10-10-10-10--8-10- 
   |---------------------------------- 

   |----------------------------------| R 
   |----------------------------------| 
   |-15-15-15-15-15-15-15-15-15-17-12-| 
   |----------------------------------| 
   |-13-13-13-13-13-13-13-13-13-15-10-| 
   |----------------------------------| 

   Solo 2 

   |-------------------------------------------| L 
   |-------------------------------------------| 
   |-------------------------------------------| 
   |-10-10--5---10-13--17-15---10-12--19-15-12-| 
   |-10--8--5----8-10--17-13----8-10--17-13-10-| 
   |-------------------------------------------| 

   _________________________________________________________________ 
   Track 8-Gender 

   1st Verse 

   |----------------------|----------------------| L 
   |----------------------|----------------------| 
   |----------------------|----------------------| 
   |----------------------|----------------------| 
   |----------------------|----------------------| 
   |-8--8--8-8---8--8-8-9-|-7--7--7-7---7--7-7-9-| 
   2x 

   |----------------------|----------------------| R 
   |----------------------|----------------------| 
   |----------------------|----------------------| 
   |----------------------|----------------------| 
   |----------------------|----------------------| 
   |-8--8--8-8-8-8--8-8-9-|-7--7--7-7-7-7--7-7-9-| 
   2x 

   Chorus 

   |--------------| L R 
   |--------------| 
   |--------------| 
   |--------------| 
   |-5----7----11-| 
   |-2----5-----9-| 

   2nd Verse 
   (rhythme plays 1st verse, lead plays...) 

   |-----------------------|-----------------------| L 
   |-12-13-12-13-12-10--12-|-11-12-11-12-11-10--12-| 
   |-----------------------|-----------------------| 
   |-----------------------|-----------------------| 
   |-----------------------|-----------------------| 
   |-----------------------|-----------------------| 
   2x 

   |-------------------------------| L 
   |-15-------12-------13-------14-| 
   |-------------------------------| 
   |-------------------------------| 
   |-------------------------------| 
   |-------------------------------| 

   Interlude 

   |------------------------------|-----------------------------| R 
   |------------------------------|-----------------------------| 
   |------------------------------|-----------------------------| 
   |------------------------------|-----------------------------| 
   |------------------------------|-----------------------------| 
   |-3--3--3-3--12--12--12-12--12-|-3--3--3-3--14--14--14-14-12-| 

   (Amir does fx w/...) 
   |------------------| L 
   |-19-and-20-and-22-| 
   |------------------| 
   |------------------| 
   |------------------| 
   |------------------| 

   _________________________________________________________________ 
   Track 9-All The Same 

   Verse 
   (Amir Does fx w/...) 
   |---------------| L 
   |-11-^-and 12-^-| 
   |---------------| 
   |---------------| 
   |---------------| 
   |---------------| 
   |---------------| 

   |-----------| R 
   |-----------| 
   |-----------| 
   |-----------| 
   |-----------| 
   |-4---5---4-| 
   |-2---3---2-| 

   Bridge 

   |---|---| R 
   |---|---| 
   |---|---| 
   |-4-|-5-| 
   |-4-|-5-| 
   |-2-|-3-| 
   16x 16x 

   Chorus 

   |----------| R 
   |----------| 
   |----------| 
   |----------| 
   |-5---3--7-| 
   |-3---1--5-| 

   |----------| L 
   |-12^---^--| 
   |----------| 
   |----------| 
   |----------| 
   |----------| 

   _________________________________________________________________ 
   Track 10-Pantomime 

   Chorus 

   |---|---|---|---| R 
   |---|---|---|---| 
   |---|---|---|---| 
   |-6-|-2-|-3-|-5-| 
   |-6-|-2-|-3-|-5-| 
   |-4-|-0-|-1-|-3-| 
   16x 4x 12x 5x 

   |-12^-| R 
   |-----| 
   |-----| 
   |-----| 
   |-----| 
   |-----| 

   Verse 

   |-15-13-|-15/21-| L 
   |-------|-------| 
   |-------|-------| 
   |-------|-------| 
   |-------|-------| 
   |-------|-------| 
   2x 2x 

   Interlude 

   |-12-11--9-11-| L 
   |-------------| 
   |-------------| 
   |-------------| 
   |-------------| 
   |-------------| 

   |-12-11-12-11-12-11-| R 
   |-------------------| 
   |-------------------| 
   |-------------------| 
   |-------------------| 
   |-------------------| 
   _________________________________________________________________ 
   Track 11-Revival 

   Chorus 

   |---------------------------------| R 
   |---------------------------------| 
   |---------------------------------| 
   |-5-5-5-5-7-7-7-7-9-9-9-9-2-2-2-2-| 
   |-5-5-5-5-7-7-7-7-9-9-9-9-2-2-2-2-| 
   |-3-3-3-3-5-5-5-5-7-7-7-7-0-0-0-0-| 

   |-15-15-14-------11-11-11-12-11-9-| L 
   |---------------------------------| 
   |---------------------------------| 
   |---------------------------------| 
   |---------------------------------| 
   |---------------------------------| 

   Pre-Verse 

   |---------------------------------| R 
   |---------------------------------| 
   |---------------------------------| 
   |---------------------------------| 
   |---5---5---7---7---9---9---2---2-| 
   |-3---3---5---5---7---7---0---0---| 

   Verse 

   |-------------| R 
   |-------------| 
   |-------------| 
   |-------------| 
   |-----------3-| 
   |-3-3-3-2-2---| 

   |-------------| L 
   |-------------| 
   |-------------| 
   |-5---6---4---| 
   |-------------| 
   |-------------| 

   Interlude 

   |-------------------------------------| R 
   |-------------------------------------| 
   |-------------------------------------| 
   |-------------------------------------| 
   |-5-5-5-5-5-5-5-4-2-2-2-2-9-9-9-7-7-7-| 
   |-3-3-3-3-3-3-3-2-0-0-0-0-7-7-7-5-5-5-| 

   |-12-13-12-13-| 
   |-------------| 
   |-------------| 
   |-------------| 
   |-------------| 
   |-------------| 
   _________________________________________________________________ 
   Track 12-Dizzy 

   Rhythme play this through the whole song 

   |-----------| R 
   |-----------| 
   |-----------| 
   |-8-------6-| 
   |-8-------6-| 
   |-6-------4-| 

   Lead plays all this 

   |--------------------| L 
   |-10h11-10h11-h12^-^-| 
   |--------------------| 
   |--------------------| 
   |--------------------| 
   |--------------------| 

   |----------|----------11-------| L 
   |-10-12-12-|---12-12-----12-11-| 
   |----------|-9-----------------| 
   |----------|-------------------| 
   |----------|-------------------| 
   |----------|-------------------| 
   2x 

   |-----| L 
   |-13^-| 
   |-12^-| 
   |-----| 
   |-----| 
   |-----| 

   _________________________________________________________________ 
   i hope you enjoyed that, here's a legend. 

   ^ = Bend 
   x = Dead Note 
   \ = Slide to- 
   h = hammer 
   p = pull off 
   >> = tremolo picking 
comments
We did not receive enough feedback on this tab! Please rate:
print report bad tab
1 2 3 4 5
1 comment total.
0 reply
knightimusprime wrote on May 15 2002, 12:00 am

dude credit 4 persiverance, i couldnt tab a whole album if i tried. orgy rock! later dude

I want to post or [tab]
guest
You may want to rate the tab now too:
select rating
Please do not post tabs as comments. Select "correction" instead!