Oops, an error
Loading. Please wait.
We have an official According To You tab made by UG professional guitarists. Check out the tab »
×
83,898 views 6 this week
8 commentsread comments
1 2 3 4 5
x 14
add to favorites
×
Save as Personal and add changes to this tab that will be seen only by you. Learn more ›
×
You can save this tab as Personal to edit and correct it or add notes. All changes will be seen only by you. Learn more »
launch autoscroll
font size
0
reset
how to read this tab
guitar tuner
edit
Autoscroll
slow
fast
+/-
esc
set tempo
stop
Author
Hello friends this is only one of my favorites for its sounds so fast.
Orianthi is one of the best.
Leave your comments and please rated.
Alex
=)

I just added these little guitar solos from these great song. I hope you like it.
if you want all the full song see the version I'm number one tab to upgrade it and
add many more things to this version.

Solo.. Min. 0:28

e----------------------------------|
B-------------------------13-15f---|
G--------------------13-15---------|
D---------------13-15--------------|
A----------13-15-------------------|
E--13h14h15------------------------|


Solo... Min. 0:58

e----------------------------------------------------|
B----------------------------------------------------|
G-----------------------------------15h16h17---17f---|
D----------12h13h14--14f---15h16h17---------17-------|
A--12h13h14--------14--------------------------------|
E----------------------------------------------------|

Solo.. Min. 1:28

e---------------------------------------|
B--11h13r(13)(13)(13)(13)(13)(13)--15f--|
G---------------------------------------|
D---------------------------------------|
A---------------------------------------|
E---------------------------------------|

Solo...
e------17Full---17--15---14h15-----------------|
B------------------------------17--------------|
G----------------------------------------------|
D----------------------------------------------|
A----------------------------------------------|
E----------------------------------------------|

e----------------------------------------------|
B---10-7---------------------------------------|
G--------10-7----------------------------------|
D-9------------9-8-----9-8-7--5f---------------|
A-----------------9-8------------------5f-7----|
E---------------------------------7p6----------|

in this part is tapping as you know already corrected some mistakes and I think this

e-10-8-6-10-8-6-10-8-6-10-8-6-10-8-6-10-8-6-10-|
B----------------------------------------------|
G----------------------------------------------|
D----------------------------------------------|
A----------------------------------------------|
E----------------------------------------------|

e-12-10-8-12-10-8-12-10-8-12-10-8-12-10-8-12-10-|
B-----------------------------------------------|
G-----------------------------------------------|
D-----------------------------------------------|
A-----------------------------------------------|
E-----------------------------------------------|

e-13-12-10-13-12-10-13-12-10-13-12-10-13-12-10-|
B----------------------------------------------|
G----------------------------------------------|
D----------------------------------------------|
A----------------------------------------------|
E----------------------------------------------|

e-13-12-10-15-12-10-13-12-10-15-12-10-17-12-10-18-12-10-17-12-10-15-12-10--|
B--------------------------------------------------------------------------|
G--------------------------------------------------------------------------|
D--------------------------------------------------------------------------|
A--------------------------------------------------------------------------|
E--------------------------------------------------------------------------|

Solo.. Min. 2:38                 Min. 2:46

e--------------------           --20f-15h17h19-15f--|
B--15f-13h14h15------           --------------------|
G---------------15f--           --------------------|
D--------------------           --------------------|
A--------------------           --------------------|
E--------------------           --------------------|


H=Hammer on
F=Full
P=Pull off

Thanks for visiting my tab.

have fun playing guitar
XDXDXDXD

            
            
Suggest correction
Creating personal tab
Creating personal tab
You can edit any tab online and save it as your Personal.

You can edit, replace or remove any tab part or add personal notes – all changes will be seen only by you.

Personal tabs can be accessed anytime from any device, even offline.
Learn more »
comments
print report bad tab
8 comments total. Showing first comments.
0 reply
dtee 10 Nov 27, 2009 04:34 AM

orianthi is so goood! the solo sounds maddd, cant wait to nail this one :)

0 reply
BFMVgirly 10 Dec 23, 2009 07:54 PM

I was wondering if you have the tab for the entire song ... like everything put into one, including those small little solos within the song and stuff ....thatd be so awesome

0 reply
FIORANO 75 Dec 25, 2009 04:37 PM

Hi if I have all the entire song I will post as soon as possible:)

guest
You may want to rate the tab now too:
select rating
Wanna post a correction for this tab? Suggest correction